999
DXF file generated by netDxf https://github.com/haplokuon/netDxf, Copyright(C) 2009-2020 Daniel Carvajal, Licensed under LGPL
0
SECTION
2
HEADER
9
$ACADVER
1
AC1015
9
$DWGCODEPAGE
3
ANSI_1252
9
$HANDSEED
5
1BE
9
$ANGBASE
50
0.0
9
$ANGDIR
70
0
9
$ATTMODE
70
1
9
$AUNITS
70
0
9
$AUPREC
70
0
9
$CECOLOR
62
256
9
$CELTSCALE
40
1.0
9
$CELTYPE
6
ByLayer
9
$CELWEIGHT
370
-1
9
$CLAYER
8
0
9
$CMLJUST
70
0
9
$CMLSCALE
40
20.0
9
$CMLSTYLE
2
Standard
9
$DIMSTYLE
2
Standard
9
$TEXTSIZE
40
2.5
9
$TEXTSTYLE
7
Standard
9
$LUNITS
70
2
9
$LUPREC
70
4
9
$MIRRTEXT
70
0
9
$EXTNAMES
290
1
9
$INSBASE
10
0.0
20
0.0
30
0.0
9
$INSUNITS
70
0
9
$LTSCALE
40
1.0
9
$LWDISPLAY
290
0
9
$PDMODE
70
35
9
$PDSIZE
40
0.0
9
$PLINEGEN
70
0
9
$PSLTSCALE
70
1
9
$TDCREATE
40
2459787.71396551
9
$TDUCREATE
40
2459787.63063218
9
$TDUPDATE
40
2459787.71396551
9
$TDUUPDATE
40
2459787.63063218
9
$TDINDWG
40
0.0
9
$UCSORG
10
0.0
20
0.0
30
0.0
9
$UCSXDIR
10
1.0
20
0.0
30
0.0
9
$UCSYDIR
10
0.0
20
1.0
30
0.0
9
$DIMADEC
70
0
9
$DIMALT
70
0
9
$DIMALTD
70
2
9
$DIMALTF
40
25.4
9
$DIMALTRND
40
0.0
9
$DIMALTTD
70
2
9
$DIMALTTZ
70
0
9
$DIMALTU
70
2
9
$DIMALTZ
70
0
9
$DIMAPOST
1

9
$DIMATFIT
70
3
9
$DIMAUNIT
70
0
9
$DIMASZ
40
0.18
9
$DIMAZIN
70
0
9
$DIMSAH
70
0
9
$DIMBLK
1

9
$DIMLDRBLK
1

9
$DIMCEN
40
0.09
9
$DIMCLRD
70
0
9
$DIMCLRE
70
0
9
$DIMCLRT
70
0
9
$DIMDEC
70
4
9
$DIMDLE
40
0.0
9
$DIMDLI
40
0.38
9
$DIMDSEP
70
46
9
$DIMEXE
40
0.18
9
$DIMEXO
40
0.0625
9
$DIMFXLON
70
0
9
$DIMFXL
40
1.0
9
$DIMGAP
40
0.09
9
$DIMJUST
70
0
9
$DIMLFAC
40
1.0
9
$DIMLUNIT
70
2
9
$DIMLWD
70
-2
9
$DIMLWE
70
-2
9
$DIMPOST
1

9
$DIMRND
40
0.0
9
$DIMSCALE
40
1.0
9
$DIMSD1
70
0
9
$DIMSD2
70
0
9
$DIMSE1
70
0
9
$DIMSE2
70
0
9
$DIMSOXD
70
0
9
$DIMTAD
70
0
9
$DIMTDEC
70
4
9
$DIMTFAC
40
1.0
9
$DIMTIH
70
0
9
$DIMTIX
70
0
9
$DIMTM
40
0.0
9
$DIMTMOVE
70
0
9
$DIMTOFL
70
0
9
$DIMTOH
70
0
9
$DIMTOL
70
0
9
$DIMLIM
70
0
9
$DIMTOLJ
70
1
9
$DIMTP
40
0.0
9
$DIMTXT
40
0.18
9
$DIMTXTDIRECTION
70
0
9
$DIMTZIN
70
0
9
$DIMZIN
70
0
9
$DIMFRAC
70
0
9
$DIMLTYPE
6
ByBlock
9
$DIMLTEX1
6
ByBlock
9
$DIMLTEX2
6
ByBlock
0
ENDSEC
0
SECTION
2
CLASSES
0
CLASS
1
RASTERVARIABLES
2
AcDbRasterVariables
3
ISM
90
0
280
0
281
0
0
ENDSEC
0
SECTION
2
TABLES
0
TABLE
2
APPID
5
4
330
0
100
AcDbSymbolTable
0
APPID
5
18
330
4
100
AcDbSymbolTableRecord
100
AcDbRegAppTableRecord
2
ACAD
70
0
0
APPID
5
2E
330
4
100
AcDbSymbolTableRecord
100
AcDbRegAppTableRecord
2
AcCmTransparency
70
0
0
APPID
5
2F
330
4
100
AcDbSymbolTableRecord
100
AcDbRegAppTableRecord
2
GradientColor1ACI
70
0
0
APPID
5
30
330
4
100
AcDbSymbolTableRecord
100
AcDbRegAppTableRecord
2
GradientColor2ACI
70
0
0
ENDTAB
0
TABLE
2
VPORT
5
1
330
0
100
AcDbSymbolTable
0
VPORT
5
2
330
1
100
AcDbSymbolTableRecord
100
AcDbViewportTableRecord
2
*Active
70
0
10
0.0
20
0.0
11
1.0
21
1.0
12
0.0
22
0.0
13
0.0
23
0.0
14
0.5
24
0.5
15
10.0
25
10.0
16
0.0
26
0.0
36
1.0
17
0.0
27
0.0
37
0.0
40
10.0
41
1.0
75
0
76
0
0
ENDTAB
0
TABLE
2
LTYPE
5
6
330
0
100
AcDbSymbolTable
0
LTYPE
5
14
330
6
100
AcDbSymbolTableRecord
100
AcDbLinetypeTableRecord
2
Continuous
70
0
3
Solid line
72
65
73
0
40
0.0
0
LTYPE
5
15
330
6
100
AcDbSymbolTableRecord
100
AcDbLinetypeTableRecord
2
ByLayer
70
0
3

72
65
73
0
40
0.0
0
LTYPE
5
16
330
6
100
AcDbSymbolTableRecord
100
AcDbLinetypeTableRecord
2
ByBlock
70
0
3

72
65
73
0
40
0.0
0
ENDTAB
0
TABLE
2
LAYER
5
5
330
0
100
AcDbSymbolTable
0
LAYER
5
13
330
5
100
AcDbSymbolTableRecord
100
AcDbLayerTableRecord
2
0
70
0
62
7
6
Continuous
290
1
370
-3
390
0
0
LAYER
5
22
330
5
100
AcDbSymbolTableRecord
100
AcDbLayerTableRecord
2
layer 1
70
0
62
7
6
Continuous
290
1
370
-3
390
0
0
LAYER
5
33
330
5
100
AcDbSymbolTableRecord
100
AcDbLayerTableRecord
2
layer 2
70
0
62
7
6
Continuous
290
1
370
-3
390
0
0
LAYER
5
39
330
5
100
AcDbSymbolTableRecord
100
AcDbLayerTableRecord
2
layer 3
70
0
62
7
6
Continuous
290
1
370
-3
390
0
0
LAYER
5
3F
330
5
100
AcDbSymbolTableRecord
100
AcDbLayerTableRecord
2
layer 4
70
0
62
7
6
Continuous
290
1
370
-3
390
0
0
LAYER
5
45
330
5
100
AcDbSymbolTableRecord
100
AcDbLayerTableRecord
2
layer 5
70
0
62
7
6
Continuous
290
1
370
-3
390
0
0
LAYER
5
4B
330
5
100
AcDbSymbolTableRecord
100
AcDbLayerTableRecord
2
layer 6
70
0
62
7
6
Continuous
290
1
370
-3
390
0
0
LAYER
5
51
330
5
100
AcDbSymbolTableRecord
100
AcDbLayerTableRecord
2
layer 7
70
0
62
7
6
Continuous
290
1
370
-3
390
0
0
LAYER
5
58
330
5
100
AcDbSymbolTableRecord
100
AcDbLayerTableRecord
2
layer 8
70
0
62
7
6
Continuous
290
1
370
-3
390
0
0
LAYER
5
60
330
5
100
AcDbSymbolTableRecord
100
AcDbLayerTableRecord
2
layer 9
70
0
62
7
6
Continuous
290
1
370
-3
390
0
0
LAYER
5
66
330
5
100
AcDbSymbolTableRecord
100
AcDbLayerTableRecord
2
layer 10
70
0
62
7
6
Continuous
290
1
370
-3
390
0
0
LAYER
5
6C
330
5
100
AcDbSymbolTableRecord
100
AcDbLayerTableRecord
2
layer 11
70
0
62
7
6
Continuous
290
1
370
-3
390
0
0
LAYER
5
72
330
5
100
AcDbSymbolTableRecord
100
AcDbLayerTableRecord
2
layer 12
70
0
62
7
6
Continuous
290
1
370
-3
390
0
0
LAYER
5
78
330
5
100
AcDbSymbolTableRecord
100
AcDbLayerTableRecord
2
layer 13
70
0
62
7
6
Continuous
290
1
370
-3
390
0
0
LAYER
5
7E
330
5
100
AcDbSymbolTableRecord
100
AcDbLayerTableRecord
2
layer 14
70
0
62
7
6
Continuous
290
1
370
-3
390
0
0
LAYER
5
85
330
5
100
AcDbSymbolTableRecord
100
AcDbLayerTableRecord
2
layer 15
70
0
62
7
6
Continuous
290
1
370
-3
390
0
0
LAYER
5
8F
330
5
100
AcDbSymbolTableRecord
100
AcDbLayerTableRecord
2
layer 16
70
0
62
7
6
Continuous
290
1
370
-3
390
0
0
LAYER
5
97
330
5
100
AcDbSymbolTableRecord
100
AcDbLayerTableRecord
2
layer 17
70
0
62
7
6
Continuous
290
1
370
-3
390
0
0
LAYER
5
9F
330
5
100
AcDbSymbolTableRecord
100
AcDbLayerTableRecord
2
layer 18
70
0
62
7
6
Continuous
290
1
370
-3
390
0
0
LAYER
5
A6
330
5
100
AcDbSymbolTableRecord
100
AcDbLayerTableRecord
2
layer 19
70
0
62
7
6
Continuous
290
1
370
-3
390
0
0
LAYER
5
AE
330
5
100
AcDbSymbolTableRecord
100
AcDbLayerTableRecord
2
layer 20
70
0
62
7
6
Continuous
290
1
370
-3
390
0
0
LAYER
5
B6
330
5
100
AcDbSymbolTableRecord
100
AcDbLayerTableRecord
2
layer 21
70
0
62
7
6
Continuous
290
1
370
-3
390
0
0
LAYER
5
C1
330
5
100
AcDbSymbolTableRecord
100
AcDbLayerTableRecord
2
layer 22
70
0
62
7
6
Continuous
290
1
370
-3
390
0
0
LAYER
5
CB
330
5
100
AcDbSymbolTableRecord
100
AcDbLayerTableRecord
2
layer 23
70
0
62
7
6
Continuous
290
1
370
-3
390
0
0
LAYER
5
D3
330
5
100
AcDbSymbolTableRecord
100
AcDbLayerTableRecord
2
layer 24
70
0
62
7
6
Continuous
290
1
370
-3
390
0
0
LAYER
5
DB
330
5
100
AcDbSymbolTableRecord
100
AcDbLayerTableRecord
2
layer 25
70
0
62
7
6
Continuous
290
1
370
-3
390
0
0
LAYER
5
E2
330
5
100
AcDbSymbolTableRecord
100
AcDbLayerTableRecord
2
layer 26
70
0
62
7
6
Continuous
290
1
370
-3
390
0
0
LAYER
5
EA
330
5
100
AcDbSymbolTableRecord
100
AcDbLayerTableRecord
2
layer 27
70
0
62
7
6
Continuous
290
1
370
-3
390
0
0
LAYER
5
F2
330
5
100
AcDbSymbolTableRecord
100
AcDbLayerTableRecord
2
layer 28
70
0
62
7
6
Continuous
290
1
370
-3
390
0
0
LAYER
5
FD
330
5
100
AcDbSymbolTableRecord
100
AcDbLayerTableRecord
2
layer 29
70
0
62
7
6
Continuous
290
1
370
-3
390
0
0
LAYER
5
109
330
5
100
AcDbSymbolTableRecord
100
AcDbLayerTableRecord
2
layer 30
70
0
62
7
6
Continuous
290
1
370
-3
390
0
0
LAYER
5
113
330
5
100
AcDbSymbolTableRecord
100
AcDbLayerTableRecord
2
layer 31
70
0
62
7
6
Continuous
290
1
370
-3
390
0
0
LAYER
5
11C
330
5
100
AcDbSymbolTableRecord
100
AcDbLayerTableRecord
2
layer 32
70
0
62
7
6
Continuous
290
1
370
-3
390
0
0
LAYER
5
128
330
5
100
AcDbSymbolTableRecord
100
AcDbLayerTableRecord
2
layer 33
70
0
62
7
6
Continuous
290
1
370
-3
390
0
0
LAYER
5
133
330
5
100
AcDbSymbolTableRecord
100
AcDbLayerTableRecord
2
layer 34
70
0
62
7
6
Continuous
290
1
370
-3
390
0
0
LAYER
5
13E
330
5
100
AcDbSymbolTableRecord
100
AcDbLayerTableRecord
2
layer 35
70
0
62
7
6
Continuous
290
1
370
-3
390
0
0
LAYER
5
14F
330
5
100
AcDbSymbolTableRecord
100
AcDbLayerTableRecord
2
layer 36
70
0
62
7
6
Continuous
290
1
370
-3
390
0
0
LAYER
5
15B
330
5
100
AcDbSymbolTableRecord
100
AcDbLayerTableRecord
2
layer 37
70
0
62
7
6
Continuous
290
1
370
-3
390
0
0
LAYER
5
165
330
5
100
AcDbSymbolTableRecord
100
AcDbLayerTableRecord
2
layer 38
70
0
62
7
6
Continuous
290
1
370
-3
390
0
0
LAYER
5
16E
330
5
100
AcDbSymbolTableRecord
100
AcDbLayerTableRecord
2
layer 39
70
0
62
7
6
Continuous
290
1
370
-3
390
0
0
LAYER
5
17A
330
5
100
AcDbSymbolTableRecord
100
AcDbLayerTableRecord
2
layer 40
70
0
62
7
6
Continuous
290
1
370
-3
390
0
0
LAYER
5
185
330
5
100
AcDbSymbolTableRecord
100
AcDbLayerTableRecord
2
layer 41
70
0
62
7
6
Continuous
290
1
370
-3
390
0
0
LAYER
5
190
330
5
100
AcDbSymbolTableRecord
100
AcDbLayerTableRecord
2
layer 42
70
0
62
7
6
Continuous
290
1
370
-3
390
0
0
LAYER
5
1A1
330
5
100
AcDbSymbolTableRecord
100
AcDbLayerTableRecord
2
layer 43
70
0
62
7
6
Continuous
290
1
370
-3
390
0
0
LAYER
5
1AA
330
5
100
AcDbSymbolTableRecord
100
AcDbLayerTableRecord
2
layer 44
70
0
62
7
6
Continuous
290
1
370
-3
390
0
0
LAYER
5
1B4
330
5
100
AcDbSymbolTableRecord
100
AcDbLayerTableRecord
2
layer 45
70
0
62
7
6
Continuous
290
1
370
-3
390
0
0
ENDTAB
0
TABLE
2
STYLE
5
7
330
0
100
AcDbSymbolTable
0
STYLE
5
17
330
7
100
AcDbSymbolTableRecord
100
AcDbTextStyleTableRecord
2
Standard
3
simplex.shx
70
0
71
0
40
0.0
41
1.0
42
0.0
50
0.0
0
ENDTAB
0
TABLE
2
DIMSTYLE
5
9
330
0
100
AcDbSymbolTable
100
AcDbDimStyleTable
0
DIMSTYLE
105
19
330
9
100
AcDbSymbolTableRecord
100
AcDbDimStyleTableRecord
2
Standard
3

4

40
1.0
41
0.18
42
0.0625
43
0.38
44
0.18
45
0.0
46
0.0
47
0.0
48
0.0
49
1.0
70
0
71
0
72
0
73
0
74
0
75
0
76
0
77
0
78
0
79
0
140
0.18
141
0.09
143
25.4
144
1.0
146
1.0
147
0.09
148
0.0
170
0
171
2
172
0
174
0
175
0
176
0
177
0
178
0
179
0
271
4
272
4
273
2
274
2
275
0
276
0
277
2
278
46
279
0
280
0
281
0
282
0
283
1
284
0
285
0
286
0
289
3
290
0
294
0
340
17
173
0
345
16
346
16
347
16
371
-2
372
-2
0
ENDTAB
0
TABLE
2
VIEW
5
3
330
0
100
AcDbSymbolTable
0
ENDTAB
0
TABLE
2
UCS
5
B
330
0
100
AcDbSymbolTable
0
ENDTAB
0
TABLE
2
BLOCK_RECORD
5
C
330
0
100
AcDbSymbolTable
0
BLOCK_RECORD
5
1B
330
C
100
AcDbSymbolTableRecord
100
AcDbBlockTableRecord
2
*Model_Space
340
1F
0
BLOCK_RECORD
5
28
330
C
100
AcDbSymbolTableRecord
100
AcDbBlockTableRecord
2
*Paper_Space
340
2D
0
ENDTAB
0
ENDSEC
0
SECTION
2
BLOCKS
0
BLOCK
5
1D
330
1B
100
AcDbEntity
67
0
8
0
100
AcDbBlockBegin
2
*Model_Space
70
0
10
0.0
20
0.0
30
0.0
3
*Model_Space
4

0
ENDBLK
5
1C
330
1B
100
AcDbEntity
8
0
100
AcDbBlockEnd
0
BLOCK
5
2A
330
28
100
AcDbEntity
67
1
8
0
100
AcDbBlockBegin
2
*Paper_Space
70
0
10
0.0
20
0.0
30
0.0
3
*Paper_Space
4

0
ENDBLK
5
29
330
28
100
AcDbEntity
8
0
100
AcDbBlockEnd
0
ENDSEC
0
SECTION
2
ENTITIES
0
LWPOLYLINE
5
21
330
1B
100
AcDbEntity
67
0
8
layer 1
62
3
6
ByLayer
370
-1
48
1.0
60
0
100
AcDbPolyline
90
4
70
1
38
0.0
39
0.0
10
21.0
20
50.0
40
0.0
41
0.0
42
0.0
10
31.0
20
50.0
40
0.0
41
0.0
42
0.0
10
31.0
20
60.0
40
0.0
41
0.0
42
0.0
10
21.0
20
60.0
40
0.0
41
0.0
42
0.0
210
0.0
220
0.0
230
1.0
0
LWPOLYLINE
5
23
330
1B
100
AcDbEntity
67
0
8
layer 1
62
2
6
ByLayer
370
-1
48
1.0
60
0
100
AcDbPolyline
90
4
70
1
38
0.0
39
0.0
10
10.0
20
50.0
40
0.0
41
0.0
42
0.0
10
20.0
20
50.0
40
0.0
41
0.0
42
0.0
10
20.0
20
60.0
40
0.0
41
0.0
42
0.0
10
10.0
20
60.0
40
0.0
41
0.0
42
0.0
210
0.0
220
0.0
230
1.0
0
HATCH
5
25
330
1B
100
AcDbEntity
67
0
8
layer 1
62
4
6
ByLayer
370
0
48
1.0
60
0
100
AcDbHatch
10
0.0
20
0.0
30
0.0
210
0.0
220
0.0
230
1.0
2
LINE
70
0
71
1
91
1
92
7
72
1
73
1
93
4
10
10.0
20
50.0
42
0.0
10
20.0
20
50.0
42
0.0
10
20.0
20
60.0
42
0.0
10
10.0
20
60.0
42
0.0
97
1
330
24
75
0
76
0
52
45.0
41
0.5
77
0
78
0
47
0.0
98
1
10
0.0
20
0.0
1001
ACAD
1010
0.0
1020
0.0
1030
0.0
0
LWPOLYLINE
5
24
102
{ACAD_REACTORS
330
25
102
}
330
1B
100
AcDbEntity
67
0
8
layer 1
62
4
6
ByLayer
370
13
48
1.0
60
0
100
AcDbPolyline
90
4
70
1
38
0.0
39
0.0
10
10.0
20
50.0
40
0.0
41
0.0
42
0.0
10
20.0
20
50.0
40
0.0
41
0.0
42
0.0
10
20.0
20
60.0
40
0.0
41
0.0
42
0.0
10
10.0
20
60.0
40
0.0
41
0.0
42
0.0
210
0.0
220
0.0
230
1.0
0
HATCH
5
27
330
1B
100
AcDbEntity
67
0
8
layer 1
62
4
6
ByLayer
370
0
48
1.0
60
0
100
AcDbHatch
10
0.0
20
0.0
30
0.0
210
0.0
220
0.0
230
1.0
2
LINE
70
0
71
1
91
1
92
7
72
1
73
1
93
4
10
21.0
20
50.0
42
0.0
10
31.0
20
50.0
42
0.0
10
31.0
20
60.0
42
0.0
10
21.0
20
60.0
42
0.0
97
1
330
26
75
0
76
0
52
45.0
41
0.5
77
0
78
0
47
0.0
98
1
10
0.0
20
0.0
1001
ACAD
1010
0.0
1020
0.0
1030
0.0
0
LWPOLYLINE
5
26
102
{ACAD_REACTORS
330
27
102
}
330
1B
100
AcDbEntity
67
0
8
layer 1
62
4
6
ByLayer
370
13
48
1.0
60
0
100
AcDbPolyline
90
4
70
1
38
0.0
39
0.0
10
21.0
20
50.0
40
0.0
41
0.0
42
0.0
10
31.0
20
50.0
40
0.0
41
0.0
42
0.0
10
31.0
20
60.0
40
0.0
41
0.0
42
0.0
10
21.0
20
60.0
40
0.0
41
0.0
42
0.0
210
0.0
220
0.0
230
1.0
0
LWPOLYLINE
5
32
330
1B
100
AcDbEntity
67
0
8
layer 2
62
3
6
ByLayer
370
-1
48
1.0
60
0
100
AcDbPolyline
90
4
70
1
38
0.0
39
0.0
10
50.0
20
50.0
40
0.0
41
0.0
42
0.0
10
60.0
20
50.0
40
0.0
41
0.0
42
0.0
10
60.0
20
60.0
40
0.0
41
0.0
42
0.0
10
50.0
20
60.0
40
0.0
41
0.0
42
0.0
210
0.0
220
0.0
230
1.0
0
LWPOLYLINE
5
34
330
1B
100
AcDbEntity
67
0
8
layer 2
62
2
6
ByLayer
370
-1
48
1.0
60
0
100
AcDbPolyline
90
4
70
1
38
0.0
39
0.0
10
40.0
20
50.0
40
0.0
41
0.0
42
0.0
10
50.0
20
50.0
40
0.0
41
0.0
42
0.0
10
50.0
20
60.0
40
0.0
41
0.0
42
0.0
10
40.0
20
60.0
40
0.0
41
0.0
42
0.0
210
0.0
220
0.0
230
1.0
0
HATCH
5
36
330
1B
100
AcDbEntity
67
0
8
layer 2
62
4
6
ByLayer
370
0
48
1.0
60
0
100
AcDbHatch
10
0.0
20
0.0
30
0.0
210
0.0
220
0.0
230
1.0
2
LINE
70
0
71
1
91
1
92
7
72
1
73
1
93
6
10
40.0
20
50.0
42
0.0
10
50.0
20
50.0
42
0.0
10
60.0
20
50.0
42
0.0
10
60.0
20
60.0
42
0.0
10
50.0
20
60.0
42
0.0
10
40.0
20
60.0
42
0.0
97
1
330
35
75
0
76
0
52
45.0
41
0.5
77
0
78
0
47
0.0
98
1
10
0.0
20
0.0
1001
ACAD
1010
0.0
1020
0.0
1030
0.0
0
LWPOLYLINE
5
35
102
{ACAD_REACTORS
330
36
102
}
330
1B
100
AcDbEntity
67
0
8
layer 2
62
4
6
ByLayer
370
13
48
1.0
60
0
100
AcDbPolyline
90
6
70
1
38
0.0
39
0.0
10
40.0
20
50.0
40
0.0
41
0.0
42
0.0
10
50.0
20
50.0
40
0.0
41
0.0
42
0.0
10
60.0
20
50.0
40
0.0
41
0.0
42
0.0
10
60.0
20
60.0
40
0.0
41
0.0
42
0.0
10
50.0
20
60.0
40
0.0
41
0.0
42
0.0
10
40.0
20
60.0
40
0.0
41
0.0
42
0.0
210
0.0
220
0.0
230
1.0
0
LWPOLYLINE
5
38
330
1B
100
AcDbEntity
67
0
8
layer 3
62
3
6
ByLayer
370
-1
48
1.0
60
0
100
AcDbPolyline
90
4
70
1
38
0.0
39
0.0
10
70.0
20
50.0
40
0.0
41
0.0
42
0.0
10
80.0
20
50.0
40
0.0
41
0.0
42
0.0
10
80.0
20
60.0
40
0.0
41
0.0
42
0.0
10
70.0
20
60.0
40
0.0
41
0.0
42
0.0
210
0.0
220
0.0
230
1.0
0
LWPOLYLINE
5
3A
330
1B
100
AcDbEntity
67
0
8
layer 3
62
2
6
ByLayer
370
-1
48
1.0
60
0
100
AcDbPolyline
90
4
70
1
38
0.0
39
0.0
10
70.0
20
50.0
40
0.0
41
0.0
42
0.0
10
80.0
20
50.0
40
0.0
41
0.0
42
0.0
10
80.0
20
60.0
40
0.0
41
0.0
42
0.0
10
70.0
20
60.0
40
0.0
41
0.0
42
0.0
210
0.0
220
0.0
230
1.0
0
HATCH
5
3C
330
1B
100
AcDbEntity
67
0
8
layer 3
62
4
6
ByLayer
370
0
48
1.0
60
0
100
AcDbHatch
10
0.0
20
0.0
30
0.0
210
0.0
220
0.0
230
1.0
2
LINE
70
0
71
1
91
1
92
7
72
1
73
1
93
4
10
70.0
20
50.0
42
0.0
10
80.0
20
50.0
42
0.0
10
80.0
20
60.0
42
0.0
10
70.0
20
60.0
42
0.0
97
1
330
3B
75
0
76
0
52
45.0
41
0.5
77
0
78
0
47
0.0
98
1
10
0.0
20
0.0
1001
ACAD
1010
0.0
1020
0.0
1030
0.0
0
LWPOLYLINE
5
3B
102
{ACAD_REACTORS
330
3C
102
}
330
1B
100
AcDbEntity
67
0
8
layer 3
62
4
6
ByLayer
370
13
48
1.0
60
0
100
AcDbPolyline
90
4
70
1
38
0.0
39
0.0
10
70.0
20
50.0
40
0.0
41
0.0
42
0.0
10
80.0
20
50.0
40
0.0
41
0.0
42
0.0
10
80.0
20
60.0
40
0.0
41
0.0
42
0.0
10
70.0
20
60.0
40
0.0
41
0.0
42
0.0
210
0.0
220
0.0
230
1.0
0
LWPOLYLINE
5
3E
330
1B
100
AcDbEntity
67
0
8
layer 4
62
3
6
ByLayer
370
-1
48
1.0
60
0
100
AcDbPolyline
90
4
70
1
38
0.0
39
0.0
10
92.0
20
52.0
40
0.0
41
0.0
42
0.0
10
98.0
20
52.0
40
0.0
41
0.0
42
0.0
10
98.0
20
58.0
40
0.0
41
0.0
42
0.0
10
92.0
20
58.0
40
0.0
41
0.0
42
0.0
210
0.0
220
0.0
230
1.0
0
LWPOLYLINE
5
40
330
1B
100
AcDbEntity
67
0
8
layer 4
62
2
6
ByLayer
370
-1
48
1.0
60
0
100
AcDbPolyline
90
4
70
1
38
0.0
39
0.0
10
90.0
20
50.0
40
0.0
41
0.0
42
0.0
10
100.0
20
50.0
40
0.0
41
0.0
42
0.0
10
100.0
20
60.0
40
0.0
41
0.0
42
0.0
10
90.0
20
60.0
40
0.0
41
0.0
42
0.0
210
0.0
220
0.0
230
1.0
0
HATCH
5
42
330
1B
100
AcDbEntity
67
0
8
layer 4
62
4
6
ByLayer
370
0
48
1.0
60
0
100
AcDbHatch
10
0.0
20
0.0
30
0.0
210
0.0
220
0.0
230
1.0
2
LINE
70
0
71
1
91
1
92
7
72
1
73
1
93
4
10
90.0
20
50.0
42
0.0
10
100.0
20
50.0
42
0.0
10
100.0
20
60.0
42
0.0
10
90.0
20
60.0
42
0.0
97
1
330
41
75
0
76
0
52
45.0
41
0.5
77
0
78
0
47
0.0
98
1
10
0.0
20
0.0
1001
ACAD
1010
0.0
1020
0.0
1030
0.0
0
LWPOLYLINE
5
41
102
{ACAD_REACTORS
330
42
102
}
330
1B
100
AcDbEntity
67
0
8
layer 4
62
4
6
ByLayer
370
13
48
1.0
60
0
100
AcDbPolyline
90
4
70
1
38
0.0
39
0.0
10
90.0
20
50.0
40
0.0
41
0.0
42
0.0
10
100.0
20
50.0
40
0.0
41
0.0
42
0.0
10
100.0
20
60.0
40
0.0
41
0.0
42
0.0
10
90.0
20
60.0
40
0.0
41
0.0
42
0.0
210
0.0
220
0.0
230
1.0
0
LWPOLYLINE
5
44
330
1B
100
AcDbEntity
67
0
8
layer 5
62
3
6
ByLayer
370
-1
48
1.0
60
0
100
AcDbPolyline
90
4
70
1
38
0.0
39
0.0
10
18.0
20
30.0
40
0.0
41
0.0
42
0.0
10
28.0
20
30.0
40
0.0
41
0.0
42
0.0
10
28.0
20
40.0
40
0.0
41
0.0
42
0.0
10
18.0
20
40.0
40
0.0
41
0.0
42
0.0
210
0.0
220
0.0
230
1.0
0
LWPOLYLINE
5
46
330
1B
100
AcDbEntity
67
0
8
layer 5
62
2
6
ByLayer
370
-1
48
1.0
60
0
100
AcDbPolyline
90
4
70
1
38
0.0
39
0.0
10
10.0
20
30.0
40
0.0
41
0.0
42
0.0
10
20.0
20
30.0
40
0.0
41
0.0
42
0.0
10
20.0
20
40.0
40
0.0
41
0.0
42
0.0
10
10.0
20
40.0
40
0.0
41
0.0
42
0.0
210
0.0
220
0.0
230
1.0
0
HATCH
5
48
330
1B
100
AcDbEntity
67
0
8
layer 5
62
4
6
ByLayer
370
0
48
1.0
60
0
100
AcDbHatch
10
0.0
20
0.0
30
0.0
210
0.0
220
0.0
230
1.0
2
LINE
70
0
71
1
91
1
92
7
72
1
73
1
93
8
10
18.0
20
30.0
42
0.0
10
10.0
20
30.0
42
0.0
10
10.0
20
40.0
42
0.0
10
18.0
20
40.0
42
0.0
10
20.0
20
40.0
42
0.0
10
28.0
20
40.0
42
0.0
10
28.0
20
30.0
42
0.0
10
20.0
20
30.0
42
0.0
97
1
330
47
75
0
76
0
52
45.0
41
0.5
77
0
78
0
47
0.0
98
1
10
0.0
20
0.0
1001
ACAD
1010
0.0
1020
0.0
1030
0.0
0
LWPOLYLINE
5
47
102
{ACAD_REACTORS
330
48
102
}
330
1B
100
AcDbEntity
67
0
8
layer 5
62
4
6
ByLayer
370
13
48
1.0
60
0
100
AcDbPolyline
90
8
70
1
38
0.0
39
0.0
10
18.0
20
30.0
40
0.0
41
0.0
42
0.0
10
10.0
20
30.0
40
0.0
41
0.0
42
0.0
10
10.0
20
40.0
40
0.0
41
0.0
42
0.0
10
18.0
20
40.0
40
0.0
41
0.0
42
0.0
10
20.0
20
40.0
40
0.0
41
0.0
42
0.0
10
28.0
20
40.0
40
0.0
41
0.0
42
0.0
10
28.0
20
30.0
40
0.0
41
0.0
42
0.0
10
20.0
20
30.0
40
0.0
41
0.0
42
0.0
210
0.0
220
0.0
230
1.0
0
LWPOLYLINE
5
4A
330
1B
100
AcDbEntity
67
0
8
layer 6
62
3
6
ByLayer
370
-1
48
1.0
60
0
100
AcDbPolyline
90
4
70
1
38
0.0
39
0.0
10
48.0
20
28.0
40
0.0
41
0.0
42
0.0
10
58.0
20
28.0
40
0.0
41
0.0
42
0.0
10
58.0
20
38.0
40
0.0
41
0.0
42
0.0
10
48.0
20
38.0
40
0.0
41
0.0
42
0.0
210
0.0
220
0.0
230
1.0
0
LWPOLYLINE
5
4C
330
1B
100
AcDbEntity
67
0
8
layer 6
62
2
6
ByLayer
370
-1
48
1.0
60
0
100
AcDbPolyline
90
4
70
1
38
0.0
39
0.0
10
40.0
20
30.0
40
0.0
41
0.0
42
0.0
10
50.0
20
30.0
40
0.0
41
0.0
42
0.0
10
50.0
20
40.0
40
0.0
41
0.0
42
0.0
10
40.0
20
40.0
40
0.0
41
0.0
42
0.0
210
0.0
220
0.0
230
1.0
0
HATCH
5
4E
330
1B
100
AcDbEntity
67
0
8
layer 6
62
4
6
ByLayer
370
0
48
1.0
60
0
100
AcDbHatch
10
0.0
20
0.0
30
0.0
210
0.0
220
0.0
230
1.0
2
LINE
70
0
71
1
91
1
92
7
72
1
73
1
93
8
10
48.0
20
30.0
42
0.0
10
40.0
20
30.0
42
0.0
10
40.0
20
40.0
42
0.0
10
50.0
20
40.0
42
0.0
10
50.0
20
38.0
42
0.0
10
58.0
20
38.0
42
0.0
10
58.0
20
28.0
42
0.0
10
48.0
20
28.0
42
0.0
97
1
330
4D
75
0
76
0
52
45.0
41
0.5
77
0
78
0
47
0.0
98
1
10
0.0
20
0.0
1001
ACAD
1010
0.0
1020
0.0
1030
0.0
0
LWPOLYLINE
5
4D
102
{ACAD_REACTORS
330
4E
102
}
330
1B
100
AcDbEntity
67
0
8
layer 6
62
4
6
ByLayer
370
13
48
1.0
60
0
100
AcDbPolyline
90
8
70
1
38
0.0
39
0.0
10
48.0
20
30.0
40
0.0
41
0.0
42
0.0
10
40.0
20
30.0
40
0.0
41
0.0
42
0.0
10
40.0
20
40.0
40
0.0
41
0.0
42
0.0
10
50.0
20
40.0
40
0.0
41
0.0
42
0.0
10
50.0
20
38.0
40
0.0
41
0.0
42
0.0
10
58.0
20
38.0
40
0.0
41
0.0
42
0.0
10
58.0
20
28.0
40
0.0
41
0.0
42
0.0
10
48.0
20
28.0
40
0.0
41
0.0
42
0.0
210
0.0
220
0.0
230
1.0
0
LWPOLYLINE
5
50
330
1B
100
AcDbEntity
67
0
8
layer 7
62
3
6
ByLayer
370
-1
48
1.0
60
0
100
AcDbPolyline
90
8
70
1
38
0.0
39
0.0
10
67.0
20
38.0
40
0.0
41
0.0
42
0.0
10
84.0
20
38.0
40
0.0
41
0.0
42
0.0
10
84.0
20
36.0
40
0.0
41
0.0
42
0.0
10
69.0
20
36.0
40
0.0
41
0.0
42
0.0
10
69.0
20
34.0
40
0.0
41
0.0
42
0.0
10
84.0
20
34.0
40
0.0
41
0.0
42
0.0
10
84.0
20
32.0
40
0.0
41
0.0
42
0.0
10
67.0
20
32.0
40
0.0
41
0.0
42
0.0
210
0.0
220
0.0
230
1.0
0
LWPOLYLINE
5
52
330
1B
100
AcDbEntity
67
0
8
layer 7
62
2
6
ByLayer
370
-1
48
1.0
60
0
100
AcDbPolyline
90
4
70
1
38
0.0
39
0.0
10
70.0
20
30.0
40
0.0
41
0.0
42
0.0
10
80.0
20
30.0
40
0.0
41
0.0
42
0.0
10
80.0
20
40.0
40
0.0
41
0.0
42
0.0
10
70.0
20
40.0
40
0.0
41
0.0
42
0.0
210
0.0
220
0.0
230
1.0
0
HATCH
5
55
330
1B
100
AcDbEntity
67
0
8
layer 7
62
4
6
ByLayer
370
0
48
1.0
60
0
100
AcDbHatch
10
0.0
20
0.0
30
0.0
210
0.0
220
0.0
230
1.0
2
LINE
70
0
71
1
91
2
92
7
72
1
73
1
93
16
10
80.0
20
38.0
42
0.0
10
80.0
20
40.0
42
0.0
10
70.0
20
40.0
42
0.0
10
70.0
20
38.0
42
0.0
10
67.0
20
38.0
42
0.0
10
67.0
20
32.0
42
0.0
10
70.0
20
32.0
42
0.0
10
70.0
20
30.0
42
0.0
10
80.0
20
30.0
42
0.0
10
80.0
20
32.0
42
0.0
10
84.0
20
32.0
42
0.0
10
84.0
20
34.0
42
0.0
10
80.0
20
34.0
42
0.0
10
80.0
20
36.0
42
0.0
10
84.0
20
36.0
42
0.0
10
84.0
20
38.0
42
0.0
97
1
330
53
92
7
72
1
73
1
93
4
10
70.0
20
36.0
42
0.0
10
70.0
20
34.0
42
0.0
10
69.0
20
34.0
42
0.0
10
69.0
20
36.0
42
0.0
97
1
330
54
75
0
76
0
52
45.0
41
0.5
77
0
78
0
47
0.0
98
1
10
0.0
20
0.0
1001
ACAD
1010
0.0
1020
0.0
1030
0.0
0
LWPOLYLINE
5
53
102
{ACAD_REACTORS
330
55
102
}
330
1B
100
AcDbEntity
67
0
8
layer 7
62
4
6
ByLayer
370
13
48
1.0
60
0
100
AcDbPolyline
90
16
70
1
38
0.0
39
0.0
10
80.0
20
38.0
40
0.0
41
0.0
42
0.0
10
80.0
20
40.0
40
0.0
41
0.0
42
0.0
10
70.0
20
40.0
40
0.0
41
0.0
42
0.0
10
70.0
20
38.0
40
0.0
41
0.0
42
0.0
10
67.0
20
38.0
40
0.0
41
0.0
42
0.0
10
67.0
20
32.0
40
0.0
41
0.0
42
0.0
10
70.0
20
32.0
40
0.0
41
0.0
42
0.0
10
70.0
20
30.0
40
0.0
41
0.0
42
0.0
10
80.0
20
30.0
40
0.0
41
0.0
42
0.0
10
80.0
20
32.0
40
0.0
41
0.0
42
0.0
10
84.0
20
32.0
40
0.0
41
0.0
42
0.0
10
84.0
20
34.0
40
0.0
41
0.0
42
0.0
10
80.0
20
34.0
40
0.0
41
0.0
42
0.0
10
80.0
20
36.0
40
0.0
41
0.0
42
0.0
10
84.0
20
36.0
40
0.0
41
0.0
42
0.0
10
84.0
20
38.0
40
0.0
41
0.0
42
0.0
210
0.0
220
0.0
230
1.0
0
LWPOLYLINE
5
54
102
{ACAD_REACTORS
330
55
102
}
330
1B
100
AcDbEntity
67
0
8
layer 7
62
4
6
ByLayer
370
13
48
1.0
60
0
100
AcDbPolyline
90
4
70
1
38
0.0
39
0.0
10
70.0
20
36.0
40
0.0
41
0.0
42
0.0
10
70.0
20
34.0
40
0.0
41
0.0
42
0.0
10
69.0
20
34.0
40
0.0
41
0.0
42
0.0
10
69.0
20
36.0
40
0.0
41
0.0
42
0.0
210
0.0
220
0.0
230
1.0
0
LWPOLYLINE
5
57
330
1B
100
AcDbEntity
67
0
8
layer 8
62
3
6
ByLayer
370
-1
48
1.0
60
0
100
AcDbPolyline
90
4
70
1
38
0.0
39
0.0
10
21.0
20
10.0
40
0.0
41
0.0
42
0.0
10
31.0
20
10.0
40
0.0
41
0.0
42
0.0
10
31.0
20
20.0
40
0.0
41
0.0
42
0.0
10
21.0
20
20.0
40
0.0
41
0.0
42
0.31265021563387
210
0.0
220
0.0
230
1.0
0
LWPOLYLINE
5
59
330
1B
100
AcDbEntity
67
0
8
layer 8
62
2
6
ByLayer
370
-1
48
1.0
60
0
100
AcDbPolyline
90
4
70
1
38
0.0
39
0.0
10
10.0
20
10.0
40
0.0
41
0.0
42
0.0
10
20.0
20
10.0
40
0.0
41
0.0
42
-0.31265021563387
10
20.0
20
20.0
40
0.0
41
0.0
42
0.0
10
10.0
20
20.0
40
0.0
41
0.0
42
0.0
210
0.0
220
0.0
230
1.0
0
HATCH
5
5B
330
1B
100
AcDbEntity
67
0
8
layer 8
62
4
6
ByLayer
370
0
48
1.0
60
0
100
AcDbHatch
10
0.0
20
0.0
30
0.0
210
0.0
220
0.0
230
1.0
2
LINE
70
0
71
1
91
1
92
7
72
1
73
1
93
4
10
10.0
20
10.0
42
0.0
10
20.0
20
10.0
42
-0.31265021563387
10
20.0
20
20.0
42
0.0
10
10.0
20
20.0
42
0.0
97
1
330
5A
75
0
76
0
52
45.0
41
0.5
77
0
78
0
47
0.0
98
1
10
0.0
20
0.0
1001
ACAD
1010
0.0
1020
0.0
1030
0.0
0
LWPOLYLINE
5
5A
102
{ACAD_REACTORS
330
5B
102
}
330
1B
100
AcDbEntity
67
0
8
layer 8
62
4
6
ByLayer
370
13
48
1.0
60
0
100
AcDbPolyline
90
4
70
1
38
0.0
39
0.0
10
10.0
20
10.0
40
0.0
41
0.0
42
0.0
10
20.0
20
10.0
40
0.0
41
0.0
42
-0.31265021563387
10
20.0
20
20.0
40
0.0
41
0.0
42
0.0
10
10.0
20
20.0
40
0.0
41
0.0
42
0.0
210
0.0
220
0.0
230
1.0
0
HATCH
5
5D
330
1B
100
AcDbEntity
67
0
8
layer 8
62
4
6
ByLayer
370
0
48
1.0
60
0
100
AcDbHatch
10
0.0
20
0.0
30
0.0
210
0.0
220
0.0
230
1.0
2
LINE
70
0
71
1
91
1
92
7
72
1
73
1
93
4
10
21.0
20
10.0
42
0.0
10
31.0
20
10.0
42
0.0
10
31.0
20
20.0
42
0.0
10
21.0
20
20.0
42
0.31265021563387
97
1
330
5C
75
0
76
0
52
45.0
41
0.5
77
0
78
0
47
0.0
98
1
10
0.0
20
0.0
1001
ACAD
1010
0.0
1020
0.0
1030
0.0
0
LWPOLYLINE
5
5C
102
{ACAD_REACTORS
330
5D
102
}
330
1B
100
AcDbEntity
67
0
8
layer 8
62
4
6
ByLayer
370
13
48
1.0
60
0
100
AcDbPolyline
90
4
70
1
38
0.0
39
0.0
10
21.0
20
10.0
40
0.0
41
0.0
42
0.0
10
31.0
20
10.0
40
0.0
41
0.0
42
0.0
10
31.0
20
20.0
40
0.0
41
0.0
42
0.0
10
21.0
20
20.0
40
0.0
41
0.0
42
0.31265021563387
210
0.0
220
0.0
230
1.0
0
LWPOLYLINE
5
5F
330
1B
100
AcDbEntity
67
0
8
layer 9
62
3
6
ByLayer
370
-1
48
1.0
60
0
100
AcDbPolyline
90
4
70
1
38
0.0
39
0.0
10
50.0
20
10.0
40
0.0
41
0.0
42
0.0
10
60.0
20
10.0
40
0.0
41
0.0
42
0.0
10
60.0
20
20.0
40
0.0
41
0.0
42
0.0
10
50.0
20
20.0
40
0.0
41
0.0
42
0.31265021563387
210
0.0
220
0.0
230
1.0
0
LWPOLYLINE
5
61
330
1B
100
AcDbEntity
67
0
8
layer 9
62
2
6
ByLayer
370
-1
48
1.0
60
0
100
AcDbPolyline
90
4
70
1
38
0.0
39
0.0
10
40.0
20
10.0
40
0.0
41
0.0
42
0.0
10
50.0
20
10.0
40
0.0
41
0.0
42
-0.31265021563387
10
50.0
20
20.0
40
0.0
41
0.0
42
0.0
10
40.0
20
20.0
40
0.0
41
0.0
42
0.0
210
0.0
220
0.0
230
1.0
0
HATCH
5
63
330
1B
100
AcDbEntity
67
0
8
layer 9
62
4
6
ByLayer
370
0
48
1.0
60
0
100
AcDbHatch
10
0.0
20
0.0
30
0.0
210
0.0
220
0.0
230
1.0
2
LINE
70
0
71
1
91
1
92
7
72
1
73
1
93
6
10
40.0
20
10.0
42
0.0
10
50.0
20
10.0
42
0.0
10
60.0
20
10.0
42
0.0
10
60.0
20
20.0
42
0.0
10
50.0
20
20.0
42
0.0
10
40.0
20
20.0
42
0.0
97
1
330
62
75
0
76
0
52
45.0
41
0.5
77
0
78
0
47
0.0
98
1
10
0.0
20
0.0
1001
ACAD
1010
0.0
1020
0.0
1030
0.0
0
LWPOLYLINE
5
62
102
{ACAD_REACTORS
330
63
102
}
330
1B
100
AcDbEntity
67
0
8
layer 9
62
4
6
ByLayer
370
13
48
1.0
60
0
100
AcDbPolyline
90
6
70
1
38
0.0
39
0.0
10
40.0
20
10.0
40
0.0
41
0.0
42
0.0
10
50.0
20
10.0
40
0.0
41
0.0
42
0.0
10
60.0
20
10.0
40
0.0
41
0.0
42
0.0
10
60.0
20
20.0
40
0.0
41
0.0
42
0.0
10
50.0
20
20.0
40
0.0
41
0.0
42
0.0
10
40.0
20
20.0
40
0.0
41
0.0
42
0.0
210
0.0
220
0.0
230
1.0
0
LWPOLYLINE
5
65
330
1B
100
AcDbEntity
67
0
8
layer 10
62
3
6
ByLayer
370
-1
48
1.0
60
0
100
AcDbPolyline
90
4
70
1
38
0.0
39
0.0
10
70.0
20
10.0
40
0.0
41
0.0
42
0.0
10
80.0
20
10.0
40
0.0
41
0.0
42
0.0
10
80.0
20
20.0
40
0.0
41
0.0
42
0.0
10
70.0
20
20.0
40
0.0
41
0.0
42
0.31265021563387
210
0.0
220
0.0
230
1.0
0
LWPOLYLINE
5
67
330
1B
100
AcDbEntity
67
0
8
layer 10
62
2
6
ByLayer
370
-1
48
1.0
60
0
100
AcDbPolyline
90
4
70
1
38
0.0
39
0.0
10
70.0
20
10.0
40
0.0
41
0.0
42
0.0
10
80.0
20
10.0
40
0.0
41
0.0
42
0.0
10
80.0
20
20.0
40
0.0
41
0.0
42
0.0
10
70.0
20
20.0
40
0.0
41
0.0
42
0.31265021563387
210
0.0
220
0.0
230
1.0
0
HATCH
5
69
330
1B
100
AcDbEntity
67
0
8
layer 10
62
4
6
ByLayer
370
0
48
1.0
60
0
100
AcDbHatch
10
0.0
20
0.0
30
0.0
210
0.0
220
0.0
230
1.0
2
LINE
70
0
71
1
91
1
92
7
72
1
73
1
93
4
10
70.0
20
10.0
42
0.0
10
80.0
20
10.0
42
0.0
10
80.0
20
20.0
42
0.0
10
70.0
20
20.0
42
0.31265021563387
97
1
330
68
75
0
76
0
52
45.0
41
0.5
77
0
78
0
47
0.0
98
1
10
0.0
20
0.0
1001
ACAD
1010
0.0
1020
0.0
1030
0.0
0
LWPOLYLINE
5
68
102
{ACAD_REACTORS
330
69
102
}
330
1B
100
AcDbEntity
67
0
8
layer 10
62
4
6
ByLayer
370
13
48
1.0
60
0
100
AcDbPolyline
90
4
70
1
38
0.0
39
0.0
10
70.0
20
10.0
40
0.0
41
0.0
42
0.0
10
80.0
20
10.0
40
0.0
41
0.0
42
0.0
10
80.0
20
20.0
40
0.0
41
0.0
42
0.0
10
70.0
20
20.0
40
0.0
41
0.0
42
0.31265021563387
210
0.0
220
0.0
230
1.0
0
LWPOLYLINE
5
6B
330
1B
100
AcDbEntity
67
0
8
layer 11
62
3
6
ByLayer
370
-1
48
1.0
60
0
100
AcDbPolyline
90
4
70
1
38
0.0
39
0.0
10
91.0
20
12.0
40
0.0
41
0.0
42
0.0
10
98.0
20
12.0
40
0.0
41
0.0
42
0.0
10
98.0
20
18.0
40
0.0
41
0.0
42
0.0
10
91.0
20
18.0
40
0.0
41
0.0
42
0.312650215633871
210
0.0
220
0.0
230
1.0
0
LWPOLYLINE
5
6D
330
1B
100
AcDbEntity
67
0
8
layer 11
62
2
6
ByLayer
370
-1
48
1.0
60
0
100
AcDbPolyline
90
4
70
1
38
0.0
39
0.0
10
90.0
20
10.0
40
0.0
41
0.0
42
0.0
10
100.0
20
10.0
40
0.0
41
0.0
42
0.0
10
100.0
20
20.0
40
0.0
41
0.0
42
0.0
10
90.0
20
20.0
40
0.0
41
0.0
42
0.31265021563387
210
0.0
220
0.0
230
1.0
0
HATCH
5
6F
330
1B
100
AcDbEntity
67
0
8
layer 11
62
4
6
ByLayer
370
0
48
1.0
60
0
100
AcDbHatch
10
0.0
20
0.0
30
0.0
210
0.0
220
0.0
230
1.0
2
LINE
70
0
71
1
91
1
92
7
72
1
73
1
93
4
10
90.0
20
10.0
42
0.0
10
100.0
20
10.0
42
0.0
10
100.0
20
20.0
42
0.0
10
90.0
20
20.0
42
0.31265021563387
97
1
330
6E
75
0
76
0
52
45.0
41
0.5
77
0
78
0
47
0.0
98
1
10
0.0
20
0.0
1001
ACAD
1010
0.0
1020
0.0
1030
0.0
0
LWPOLYLINE
5
6E
102
{ACAD_REACTORS
330
6F
102
}
330
1B
100
AcDbEntity
67
0
8
layer 11
62
4
6
ByLayer
370
13
48
1.0
60
0
100
AcDbPolyline
90
4
70
1
38
0.0
39
0.0
10
90.0
20
10.0
40
0.0
41
0.0
42
0.0
10
100.0
20
10.0
40
0.0
41
0.0
42
0.0
10
100.0
20
20.0
40
0.0
41
0.0
42
0.0
10
90.0
20
20.0
40
0.0
41
0.0
42
0.31265021563387
210
0.0
220
0.0
230
1.0
0
LWPOLYLINE
5
71
330
1B
100
AcDbEntity
67
0
8
layer 12
62
3
6
ByLayer
370
-1
48
1.0
60
0
100
AcDbPolyline
90
4
70
1
38
0.0
39
0.0
10
18.0
20
-10.0
40
0.0
41
0.0
42
0.0
10
28.0
20
-10.0
40
0.0
41
0.0
42
0.0
10
28.0
20
0.0
40
0.0
41
0.0
42
0.0
10
18.0
20
-0.0000000000000009
40
0.0
41
0.0
42
0.31265021563387
210
0.0
220
0.0
230
1.0
0
LWPOLYLINE
5
73
330
1B
100
AcDbEntity
67
0
8
layer 12
62
2
6
ByLayer
370
-1
48
1.0
60
0
100
AcDbPolyline
90
4
70
1
38
0.0
39
0.0
10
10.0
20
-10.0
40
0.0
41
0.0
42
0.0
10
20.0
20
-10.0
40
0.0
41
0.0
42
-0.31265021563387
10
20.0
20
0.0
40
0.0
41
0.0
42
0.0
10
10.0
20
0.0
40
0.0
41
0.0
42
0.0
210
0.0
220
0.0
230
1.0
0
HATCH
5
75
330
1B
100
AcDbEntity
67
0
8
layer 12
62
4
6
ByLayer
370
0
48
1.0
60
0
100
AcDbHatch
10
0.0
20
0.0
30
0.0
210
0.0
220
0.0
230
1.0
2
LINE
70
0
71
1
91
1
92
7
72
1
73
1
93
8
10
18.0
20
-10.0
42
0.0
10
10.0
20
-10.0
42
0.0
10
10.0
20
0.0
42
0.0
10
18.0
20
0.0
42
0.0
10
20.0
20
0.0
42
0.0
10
28.0
20
0.0
42
0.0
10
28.0
20
-10.0
42
0.0
10
20.0
20
-10.0
42
0.0
97
1
330
74
75
0
76
0
52
45.0
41
0.5
77
0
78
0
47
0.0
98
1
10
0.0
20
0.0
1001
ACAD
1010
0.0
1020
0.0
1030
0.0
0
LWPOLYLINE
5
74
102
{ACAD_REACTORS
330
75
102
}
330
1B
100
AcDbEntity
67
0
8
layer 12
62
4
6
ByLayer
370
13
48
1.0
60
0
100
AcDbPolyline
90
8
70
1
38
0.0
39
0.0
10
18.0
20
-10.0
40
0.0
41
0.0
42
0.0
10
10.0
20
-10.0
40
0.0
41
0.0
42
0.0
10
10.0
20
0.0
40
0.0
41
0.0
42
0.0
10
18.0
20
0.0
40
0.0
41
0.0
42
0.0
10
20.0
20
0.0
40
0.0
41
0.0
42
0.0
10
28.0
20
0.0
40
0.0
41
0.0
42
0.0
10
28.0
20
-10.0
40
0.0
41
0.0
42
0.0
10
20.0
20
-10.0
40
0.0
41
0.0
42
0.0
210
0.0
220
0.0
230
1.0
0
LWPOLYLINE
5
77
330
1B
100
AcDbEntity
67
0
8
layer 13
62
3
6
ByLayer
370
-1
48
1.0
60
0
100
AcDbPolyline
90
4
70
1
38
0.0
39
0.0
10
48.0
20
-12.0
40
0.0
41
0.0
42
0.0
10
58.0
20
-12.0
40
0.0
41
0.0
42
0.0
10
58.0
20
-2.0
40
0.0
41
0.0
42
0.0
10
48.0
20
-2.0
40
0.0
41
0.0
42
0.31265021563387
210
0.0
220
0.0
230
1.0
0
LWPOLYLINE
5
79
330
1B
100
AcDbEntity
67
0
8
layer 13
62
2
6
ByLayer
370
-1
48
1.0
60
0
100
AcDbPolyline
90
4
70
1
38
0.0
39
0.0
10
40.0
20
-10.0
40
0.0
41
0.0
42
0.0
10
50.0
20
-10.0
40
0.0
41
0.0
42
-0.31265021563387
10
50.0
20
0.0
40
0.0
41
0.0
42
0.0
10
40.0
20
0.0
40
0.0
41
0.0
42
0.0
210
0.0
220
0.0
230
1.0
0
HATCH
5
7B
330
1B
100
AcDbEntity
67
0
8
layer 13
62
4
6
ByLayer
370
0
48
1.0
60
0
100
AcDbHatch
10
0.0
20
0.0
30
0.0
210
0.0
220
0.0
230
1.0
2
LINE
70
0
71
1
91
1
92
7
72
1
73
1
93
8
10
46.965321462836
20
-10.0
42
0.0
10
40.0
20
-10.0
42
0.0
10
40.0
20
0.0
42
0.0
10
50.0
20
0.0000000000000009
42
0.0643992160784996
10
48.965321462836
20
-2.0
42
0.0
10
58.0
20
-2.0
42
0.0
10
58.0
20
-12.0
42
0.0
10
48.0
20
-12.0
42
-0.0643992160784996
97
1
330
7A
75
0
76
0
52
45.0
41
0.5
77
0
78
0
47
0.0
98
1
10
0.0
20
0.0
1001
ACAD
1010
0.0
1020
0.0
1030
0.0
0
LWPOLYLINE
5
7A
102
{ACAD_REACTORS
330
7B
102
}
330
1B
100
AcDbEntity
67
0
8
layer 13
62
4
6
ByLayer
370
13
48
1.0
60
0
100
AcDbPolyline
90
8
70
1
38
0.0
39
0.0
10
46.965321462836
20
-10.0
40
0.0
41
0.0
42
0.0
10
40.0
20
-10.0
40
0.0
41
0.0
42
0.0
10
40.0
20
0.0
40
0.0
41
0.0
42
0.0
10
50.0
20
0.0000000000000009
40
0.0
41
0.0
42
0.0643992160784996
10
48.965321462836
20
-2.0
40
0.0
41
0.0
42
0.0
10
58.0
20
-2.0
40
0.0
41
0.0
42
0.0
10
58.0
20
-12.0
40
0.0
41
0.0
42
0.0
10
48.0
20
-12.0
40
0.0
41
0.0
42
-0.0643992160784996
210
0.0
220
0.0
230
1.0
0
LWPOLYLINE
5
7D
330
1B
100
AcDbEntity
67
0
8
layer 14
62
3
6
ByLayer
370
-1
48
1.0
60
0
100
AcDbPolyline
90
8
70
1
38
0.0
39
0.0
10
67.0
20
-2.0
40
0.0
41
0.0
42
-0.118049940810346
10
84.0
20
-2.0
40
0.0
41
0.0
42
0.0
10
84.0
20
-4.0
40
0.0
41
0.0
42
0.0
10
69.0
20
-4.0
40
0.0
41
0.0
42
0.0
10
69.0
20
-6.0
40
0.0
41
0.0
42
0.0
10
84.0
20
-6.0
40
0.0
41
0.0
42
0.0
10
84.0
20
-8.00000000000001
40
0.0
41
0.0
42
-0.118049940810346
10
67.0
20
-8.0
40
0.0
41
0.0
42
0.0
210
0.0
220
0.0
230
1.0
0
LWPOLYLINE
5
7F
330
1B
100
AcDbEntity
67
0
8
layer 14
62
2
6
ByLayer
370
-1
48
1.0
60
0
100
AcDbPolyline
90
4
70
1
38
0.0
39
0.0
10
70.0
20
-10.0
40
0.0
41
0.0
42
0.0
10
80.0
20
-10.0
40
0.0
41
0.0
42
-0.31265021563387
10
80.0
20
0.0
40
0.0
41
0.0
42
0.0
10
70.0
20
0.0
40
0.0
41
0.0
42
0.0
210
0.0
220
0.0
230
1.0
0
HATCH
5
82
330
1B
100
AcDbEntity
67
0
8
layer 14
62
4
6
ByLayer
370
0
48
1.0
60
0
100
AcDbHatch
10
0.0
20
0.0
30
0.0
210
0.0
220
0.0
230
1.0
2
LINE
70
0
71
1
91
2
92
7
72
1
73
1
93
16
10
79.304157127562
20
-1.19533929990781
42
-0.0394540874249322
10
80.0
20
0.0
42
0.0
10
70.0
20
0.0
42
0.0
10
70.0
20
-1.41329884846775
42
0.0209444208593785
10
67.0
20
-2.0
42
0.0
10
67.0
20
-8.0
42
0.0209444208593785
10
70.0
20
-8.58670115153225
42
0.0
10
70.0
20
-10.0
42
0.0
10
80.0
20
-10.0
42
-0.0394540874249326
10
79.304157127562
20
-8.80466070009219
42
0.0326638459533189
10
84.0
20
-8.0
42
0.0
10
84.0
20
-6.0
42
0.0
10
78.4938969526595
20
-6.0
42
-0.0571480308288164
10
78.4938969526595
20
-4.0
42
0.0
10
84.0
20
-4.0
42
0.0
10
84.0
20
-2.0
42
0.0326638459533191
97
1
330
80
92
7
72
1
73
1
93
4
10
70.0
20
-4.0
42
0.0
10
70.0
20
-6.0
42
0.0
10
69.0
20
-6.0
42
0.0
10
69.0
20
-4.0
42
0.0
97
1
330
81
75
0
76
0
52
45.0
41
0.5
77
0
78
0
47
0.0
98
1
10
0.0
20
0.0
1001
ACAD
1010
0.0
1020
0.0
1030
0.0
0
LWPOLYLINE
5
80
102
{ACAD_REACTORS
330
82
102
}
330
1B
100
AcDbEntity
67
0
8
layer 14
62
4
6
ByLayer
370
13
48
1.0
60
0
100
AcDbPolyline
90
16
70
1
38
0.0
39
0.0
10
79.304157127562
20
-1.19533929990781
40
0.0
41
0.0
42
-0.0394540874249322
10
80.0
20
0.0
40
0.0
41
0.0
42
0.0
10
70.0
20
0.0
40
0.0
41
0.0
42
0.0
10
70.0
20
-1.41329884846775
40
0.0
41
0.0
42
0.0209444208593785
10
67.0
20
-2.0
40
0.0
41
0.0
42
0.0
10
67.0
20
-8.0
40
0.0
41
0.0
42
0.0209444208593785
10
70.0
20
-8.58670115153225
40
0.0
41
0.0
42
0.0
10
70.0
20
-10.0
40
0.0
41
0.0
42
0.0
10
80.0
20
-10.0
40
0.0
41
0.0
42
-0.0394540874249326
10
79.304157127562
20
-8.80466070009219
40
0.0
41
0.0
42
0.0326638459533189
10
84.0
20
-8.0
40
0.0
41
0.0
42
0.0
10
84.0
20
-6.0
40
0.0
41
0.0
42
0.0
10
78.4938969526595
20
-6.0
40
0.0
41
0.0
42
-0.0571480308288164
10
78.4938969526595
20
-4.0
40
0.0
41
0.0
42
0.0
10
84.0
20
-4.0
40
0.0
41
0.0
42
0.0
10
84.0
20
-2.0
40
0.0
41
0.0
42
0.0326638459533191
210
0.0
220
0.0
230
1.0
0
LWPOLYLINE
5
81
102
{ACAD_REACTORS
330
82
102
}
330
1B
100
AcDbEntity
67
0
8
layer 14
62
4
6
ByLayer
370
13
48
1.0
60
0
100
AcDbPolyline
90
4
70
1
38
0.0
39
0.0
10
70.0
20
-4.0
40
0.0
41
0.0
42
0.0
10
70.0
20
-6.0
40
0.0
41
0.0
42
0.0
10
69.0
20
-6.0
40
0.0
41
0.0
42
0.0
10
69.0
20
-4.0
40
0.0
41
0.0
42
0.0
210
0.0
220
0.0
230
1.0
0
LWPOLYLINE
5
84
330
1B
100
AcDbEntity
67
0
8
layer 15
62
3
6
ByLayer
370
-1
48
1.0
60
0
100
AcDbPolyline
90
4
70
1
38
0.0
39
0.0
10
21.0
20
-30.0
40
0.0
41
0.0
42
0.0
10
31.0
20
-30.0
40
0.0
41
0.0
42
0.0
10
31.0
20
-20.0
40
0.0
41
0.0
42
0.0
10
21.0
20
-20.0
40
0.0
41
0.0
42
0.0
210
0.0
220
0.0
230
1.0
0
LWPOLYLINE
5
86
330
1B
100
AcDbEntity
67
0
8
layer 15
62
3
6
ByLayer
370
-1
48
1.0
60
0
100
AcDbPolyline
90
4
70
1
38
0.0
39
0.0
10
21.5
20
-29.5
40
0.0
41
0.0
42
0.0
10
30.5
20
-29.5
40
0.0
41
0.0
42
0.0
10
30.5
20
-20.5
40
0.0
41
0.0
42
0.0
10
21.5
20
-20.5
40
0.0
41
0.0
42
0.0
210
0.0
220
0.0
230
1.0
0
LWPOLYLINE
5
87
330
1B
100
AcDbEntity
67
0
8
layer 15
62
2
6
ByLayer
370
-1
48
1.0
60
0
100
AcDbPolyline
90
4
70
1
38
0.0
39
0.0
10
10.0
20
-30.0
40
0.0
41
0.0
42
0.0
10
20.0
20
-30.0
40
0.0
41
0.0
42
0.0
10
20.0
20
-20.0
40
0.0
41
0.0
42
0.0
10
10.0
20
-20.0
40
0.0
41
0.0
42
0.0
210
0.0
220
0.0
230
1.0
0
HATCH
5
89
330
1B
100
AcDbEntity
67
0
8
layer 15
62
4
6
ByLayer
370
0
48
1.0
60
0
100
AcDbHatch
10
0.0
20
0.0
30
0.0
210
0.0
220
0.0
230
1.0
2
LINE
70
0
71
1
91
1
92
7
72
1
73
1
93
4
10
10.0
20
-30.0
42
0.0
10
20.0
20
-30.0
42
0.0
10
20.0
20
-20.0
42
0.0
10
10.0
20
-20.0
42
0.0
97
1
330
88
75
0
76
0
52
45.0
41
0.5
77
0
78
0
47
0.0
98
1
10
0.0
20
0.0
1001
ACAD
1010
0.0
1020
0.0
1030
0.0
0
LWPOLYLINE
5
88
102
{ACAD_REACTORS
330
89
102
}
330
1B
100
AcDbEntity
67
0
8
layer 15
62
4
6
ByLayer
370
13
48
1.0
60
0
100
AcDbPolyline
90
4
70
1
38
0.0
39
0.0
10
10.0
20
-30.0
40
0.0
41
0.0
42
0.0
10
20.0
20
-30.0
40
0.0
41
0.0
42
0.0
10
20.0
20
-20.0
40
0.0
41
0.0
42
0.0
10
10.0
20
-20.0
40
0.0
41
0.0
42
0.0
210
0.0
220
0.0
230
1.0
0
HATCH
5
8C
330
1B
100
AcDbEntity
67
0
8
layer 15
62
4
6
ByLayer
370
0
48
1.0
60
0
100
AcDbHatch
10
0.0
20
0.0
30
0.0
210
0.0
220
0.0
230
1.0
2
LINE
70
0
71
1
91
2
92
7
72
1
73
1
93
4
10
21.0
20
-30.0
42
0.0
10
31.0
20
-30.0
42
0.0
10
31.0
20
-20.0
42
0.0
10
21.0
20
-20.0
42
0.0
97
1
330
8A
92
7
72
1
73
1
93
4
10
21.5
20
-29.5
42
0.0
10
30.5
20
-29.5
42
0.0
10
30.5
20
-20.5
42
0.0
10
21.5
20
-20.5
42
0.0
97
1
330
8B
75
0
76
0
52
45.0
41
0.5
77
0
78
0
47
0.0
98
1
10
0.0
20
0.0
1001
ACAD
1010
0.0
1020
0.0
1030
0.0
0
LWPOLYLINE
5
8A
102
{ACAD_REACTORS
330
8C
102
}
330
1B
100
AcDbEntity
67
0
8
layer 15
62
4
6
ByLayer
370
13
48
1.0
60
0
100
AcDbPolyline
90
4
70
1
38
0.0
39
0.0
10
21.0
20
-30.0
40
0.0
41
0.0
42
0.0
10
31.0
20
-30.0
40
0.0
41
0.0
42
0.0
10
31.0
20
-20.0
40
0.0
41
0.0
42
0.0
10
21.0
20
-20.0
40
0.0
41
0.0
42
0.0
210
0.0
220
0.0
230
1.0
0
LWPOLYLINE
5
8B
102
{ACAD_REACTORS
330
8C
102
}
330
1B
100
AcDbEntity
67
0
8
layer 15
62
4
6
ByLayer
370
13
48
1.0
60
0
100
AcDbPolyline
90
4
70
1
38
0.0
39
0.0
10
21.5
20
-29.5
40
0.0
41
0.0
42
0.0
10
30.5
20
-29.5
40
0.0
41
0.0
42
0.0
10
30.5
20
-20.5
40
0.0
41
0.0
42
0.0
10
21.5
20
-20.5
40
0.0
41
0.0
42
0.0
210
0.0
220
0.0
230
1.0
0
LWPOLYLINE
5
8E
330
1B
100
AcDbEntity
67
0
8
layer 16
62
3
6
ByLayer
370
-1
48
1.0
60
0
100
AcDbPolyline
90
4
70
1
38
0.0
39
0.0
10
50.0
20
-30.0
40
0.0
41
0.0
42
0.0
10
60.0
20
-30.0
40
0.0
41
0.0
42
0.0
10
60.0
20
-20.0
40
0.0
41
0.0
42
0.0
10
50.0
20
-20.0
40
0.0
41
0.0
42
0.0
210
0.0
220
0.0
230
1.0
0
LWPOLYLINE
5
90
330
1B
100
AcDbEntity
67
0
8
layer 16
62
3
6
ByLayer
370
-1
48
1.0
60
0
100
AcDbPolyline
90
4
70
1
38
0.0
39
0.0
10
50.5
20
-29.5
40
0.0
41
0.0
42
0.0
10
59.5
20
-29.5
40
0.0
41
0.0
42
0.0
10
59.5
20
-20.5
40
0.0
41
0.0
42
0.0
10
50.5
20
-20.5
40
0.0
41
0.0
42
0.0
210
0.0
220
0.0
230
1.0
0
LWPOLYLINE
5
91
330
1B
100
AcDbEntity
67
0
8
layer 16
62
2
6
ByLayer
370
-1
48
1.0
60
0
100
AcDbPolyline
90
4
70
1
38
0.0
39
0.0
10
40.0
20
-30.0
40
0.0
41
0.0
42
0.0
10
50.0
20
-30.0
40
0.0
41
0.0
42
0.0
10
50.0
20
-20.0
40
0.0
41
0.0
42
0.0
10
40.0
20
-20.0
40
0.0
41
0.0
42
0.0
210
0.0
220
0.0
230
1.0
0
HATCH
5
94
330
1B
100
AcDbEntity
67
0
8
layer 16
62
4
6
ByLayer
370
0
48
1.0
60
0
100
AcDbHatch
10
0.0
20
0.0
30
0.0
210
0.0
220
0.0
230
1.0
2
LINE
70
0
71
1
91
2
92
7
72
1
73
1
93
6
10
40.0
20
-30.0
42
0.0
10
50.0
20
-30.0
42
0.0
10
60.0
20
-30.0
42
0.0
10
60.0
20
-20.0
42
0.0
10
50.0
20
-20.0
42
0.0
10
40.0
20
-20.0
42
0.0
97
1
330
92
92
7
72
1
73
1
93
4
10
50.5
20
-29.5
42
0.0
10
59.5
20
-29.5
42
0.0
10
59.5
20
-20.5
42
0.0
10
50.5
20
-20.5
42
0.0
97
1
330
93
75
0
76
0
52
45.0
41
0.5
77
0
78
0
47
0.0
98
1
10
0.0
20
0.0
1001
ACAD
1010
0.0
1020
0.0
1030
0.0
0
LWPOLYLINE
5
92
102
{ACAD_REACTORS
330
94
102
}
330
1B
100
AcDbEntity
67
0
8
layer 16
62
4
6
ByLayer
370
13
48
1.0
60
0
100
AcDbPolyline
90
6
70
1
38
0.0
39
0.0
10
40.0
20
-30.0
40
0.0
41
0.0
42
0.0
10
50.0
20
-30.0
40
0.0
41
0.0
42
0.0
10
60.0
20
-30.0
40
0.0
41
0.0
42
0.0
10
60.0
20
-20.0
40
0.0
41
0.0
42
0.0
10
50.0
20
-20.0
40
0.0
41
0.0
42
0.0
10
40.0
20
-20.0
40
0.0
41
0.0
42
0.0
210
0.0
220
0.0
230
1.0
0
LWPOLYLINE
5
93
102
{ACAD_REACTORS
330
94
102
}
330
1B
100
AcDbEntity
67
0
8
layer 16
62
4
6
ByLayer
370
13
48
1.0
60
0
100
AcDbPolyline
90
4
70
1
38
0.0
39
0.0
10
50.5
20
-29.5
40
0.0
41
0.0
42
0.0
10
59.5
20
-29.5
40
0.0
41
0.0
42
0.0
10
59.5
20
-20.5
40
0.0
41
0.0
42
0.0
10
50.5
20
-20.5
40
0.0
41
0.0
42
0.0
210
0.0
220
0.0
230
1.0
0
LWPOLYLINE
5
96
330
1B
100
AcDbEntity
67
0
8
layer 17
62
3
6
ByLayer
370
-1
48
1.0
60
0
100
AcDbPolyline
90
4
70
1
38
0.0
39
0.0
10
70.0
20
-30.0
40
0.0
41
0.0
42
0.0
10
80.0
20
-30.0
40
0.0
41
0.0
42
0.0
10
80.0
20
-20.0
40
0.0
41
0.0
42
0.0
10
70.0
20
-20.0
40
0.0
41
0.0
42
0.0
210
0.0
220
0.0
230
1.0
0
LWPOLYLINE
5
98
330
1B
100
AcDbEntity
67
0
8
layer 17
62
3
6
ByLayer
370
-1
48
1.0
60
0
100
AcDbPolyline
90
4
70
1
38
0.0
39
0.0
10
70.5
20
-29.5
40
0.0
41
0.0
42
0.0
10
79.5
20
-29.5
40
0.0
41
0.0
42
0.0
10
79.5
20
-20.5
40
0.0
41
0.0
42
0.0
10
70.5
20
-20.5
40
0.0
41
0.0
42
0.0
210
0.0
220
0.0
230
1.0
0
LWPOLYLINE
5
99
330
1B
100
AcDbEntity
67
0
8
layer 17
62
2
6
ByLayer
370
-1
48
1.0
60
0
100
AcDbPolyline
90
4
70
1
38
0.0
39
0.0
10
70.0
20
-30.0
40
0.0
41
0.0
42
0.0
10
80.0
20
-30.0
40
0.0
41
0.0
42
0.0
10
80.0
20
-20.0
40
0.0
41
0.0
42
0.0
10
70.0
20
-20.0
40
0.0
41
0.0
42
0.0
210
0.0
220
0.0
230
1.0
0
HATCH
5
9C
330
1B
100
AcDbEntity
67
0
8
layer 17
62
4
6
ByLayer
370
0
48
1.0
60
0
100
AcDbHatch
10
0.0
20
0.0
30
0.0
210
0.0
220
0.0
230
1.0
2
LINE
70
0
71
1
91
2
92
7
72
1
73
1
93
4
10
70.0
20
-30.0
42
0.0
10
80.0
20
-30.0
42
0.0
10
80.0
20
-20.0
42
0.0
10
70.0
20
-20.0
42
0.0
97
1
330
9A
92
7
72
1
73
1
93
4
10
70.5
20
-29.5
42
0.0
10
79.5
20
-29.5
42
0.0
10
79.5
20
-20.5
42
0.0
10
70.5
20
-20.5
42
0.0
97
1
330
9B
75
0
76
0
52
45.0
41
0.5
77
0
78
0
47
0.0
98
1
10
0.0
20
0.0
1001
ACAD
1010
0.0
1020
0.0
1030
0.0
0
LWPOLYLINE
5
9A
102
{ACAD_REACTORS
330
9C
102
}
330
1B
100
AcDbEntity
67
0
8
layer 17
62
4
6
ByLayer
370
13
48
1.0
60
0
100
AcDbPolyline
90
4
70
1
38
0.0
39
0.0
10
70.0
20
-30.0
40
0.0
41
0.0
42
0.0
10
80.0
20
-30.0
40
0.0
41
0.0
42
0.0
10
80.0
20
-20.0
40
0.0
41
0.0
42
0.0
10
70.0
20
-20.0
40
0.0
41
0.0
42
0.0
210
0.0
220
0.0
230
1.0
0
LWPOLYLINE
5
9B
102
{ACAD_REACTORS
330
9C
102
}
330
1B
100
AcDbEntity
67
0
8
layer 17
62
4
6
ByLayer
370
13
48
1.0
60
0
100
AcDbPolyline
90
4
70
1
38
0.0
39
0.0
10
70.5
20
-29.5
40
0.0
41
0.0
42
0.0
10
79.5
20
-29.5
40
0.0
41
0.0
42
0.0
10
79.5
20
-20.5
40
0.0
41
0.0
42
0.0
10
70.5
20
-20.5
40
0.0
41
0.0
42
0.0
210
0.0
220
0.0
230
1.0
0
LWPOLYLINE
5
9E
330
1B
100
AcDbEntity
67
0
8
layer 18
62
3
6
ByLayer
370
-1
48
1.0
60
0
100
AcDbPolyline
90
4
70
1
38
0.0
39
0.0
10
92.0
20
-28.0
40
0.0
41
0.0
42
0.0
10
98.0
20
-28.0
40
0.0
41
0.0
42
0.0
10
98.0
20
-22.0
40
0.0
41
0.0
42
0.0
10
92.0
20
-22.0
40
0.0
41
0.0
42
0.0
210
0.0
220
0.0
230
1.0
0
LWPOLYLINE
5
A0
330
1B
100
AcDbEntity
67
0
8
layer 18
62
3
6
ByLayer
370
-1
48
1.0
60
0
100
AcDbPolyline
90
4
70
1
38
0.0
39
0.0
10
92.5
20
-27.5
40
0.0
41
0.0
42
0.0
10
97.5
20
-27.5
40
0.0
41
0.0
42
0.0
10
97.5
20
-22.5
40
0.0
41
0.0
42
0.0
10
92.5
20
-22.5
40
0.0
41
0.0
42
0.0
210
0.0
220
0.0
230
1.0
0
LWPOLYLINE
5
A1
330
1B
100
AcDbEntity
67
0
8
layer 18
62
2
6
ByLayer
370
-1
48
1.0
60
0
100
AcDbPolyline
90
4
70
1
38
0.0
39
0.0
10
90.0
20
-30.0
40
0.0
41
0.0
42
0.0
10
100.0
20
-30.0
40
0.0
41
0.0
42
0.0
10
100.0
20
-20.0
40
0.0
41
0.0
42
0.0
10
90.0
20
-20.0
40
0.0
41
0.0
42
0.0
210
0.0
220
0.0
230
1.0
0
HATCH
5
A3
330
1B
100
AcDbEntity
67
0
8
layer 18
62
4
6
ByLayer
370
0
48
1.0
60
0
100
AcDbHatch
10
0.0
20
0.0
30
0.0
210
0.0
220
0.0
230
1.0
2
LINE
70
0
71
1
91
1
92
7
72
1
73
1
93
4
10
90.0
20
-30.0
42
0.0
10
100.0
20
-30.0
42
0.0
10
100.0
20
-20.0
42
0.0
10
90.0
20
-20.0
42
0.0
97
1
330
A2
75
0
76
0
52
45.0
41
0.5
77
0
78
0
47
0.0
98
1
10
0.0
20
0.0
1001
ACAD
1010
0.0
1020
0.0
1030
0.0
0
LWPOLYLINE
5
A2
102
{ACAD_REACTORS
330
A3
102
}
330
1B
100
AcDbEntity
67
0
8
layer 18
62
4
6
ByLayer
370
13
48
1.0
60
0
100
AcDbPolyline
90
4
70
1
38
0.0
39
0.0
10
90.0
20
-30.0
40
0.0
41
0.0
42
0.0
10
100.0
20
-30.0
40
0.0
41
0.0
42
0.0
10
100.0
20
-20.0
40
0.0
41
0.0
42
0.0
10
90.0
20
-20.0
40
0.0
41
0.0
42
0.0
210
0.0
220
0.0
230
1.0
0
LWPOLYLINE
5
A5
330
1B
100
AcDbEntity
67
0
8
layer 19
62
3
6
ByLayer
370
-1
48
1.0
60
0
100
AcDbPolyline
90
4
70
1
38
0.0
39
0.0
10
18.0
20
-50.0
40
0.0
41
0.0
42
0.0
10
28.0
20
-50.0
40
0.0
41
0.0
42
0.0
10
28.0
20
-40.0
40
0.0
41
0.0
42
0.0
10
18.0
20
-40.0
40
0.0
41
0.0
42
0.0
210
0.0
220
0.0
230
1.0
0
LWPOLYLINE
5
A7
330
1B
100
AcDbEntity
67
0
8
layer 19
62
3
6
ByLayer
370
-1
48
1.0
60
0
100
AcDbPolyline
90
4
70
1
38
0.0
39
0.0
10
18.5
20
-49.5
40
0.0
41
0.0
42
0.0
10
27.5
20
-49.5
40
0.0
41
0.0
42
0.0
10
27.5
20
-40.5
40
0.0
41
0.0
42
0.0
10
18.5
20
-40.5
40
0.0
41
0.0
42
0.0
210
0.0
220
0.0
230
1.0
0
LWPOLYLINE
5
A8
330
1B
100
AcDbEntity
67
0
8
layer 19
62
2
6
ByLayer
370
-1
48
1.0
60
0
100
AcDbPolyline
90
4
70
1
38
0.0
39
0.0
10
10.0
20
-50.0
40
0.0
41
0.0
42
0.0
10
20.0
20
-50.0
40
0.0
41
0.0
42
0.0
10
20.0
20
-40.0
40
0.0
41
0.0
42
0.0
10
10.0
20
-40.0
40
0.0
41
0.0
42
0.0
210
0.0
220
0.0
230
1.0
0
HATCH
5
AB
330
1B
100
AcDbEntity
67
0
8
layer 19
62
4
6
ByLayer
370
0
48
1.0
60
0
100
AcDbHatch
10
0.0
20
0.0
30
0.0
210
0.0
220
0.0
230
1.0
2
LINE
70
0
71
1
91
2
92
7
72
1
73
1
93
8
10
18.0
20
-50.0
42
0.0
10
10.0
20
-50.0
42
0.0
10
10.0
20
-40.0
42
0.0
10
18.0
20
-40.0
42
0.0
10
20.0
20
-40.0
42
0.0
10
28.0
20
-40.0
42
0.0
10
28.0
20
-50.0
42
0.0
10
20.0
20
-50.0
42
0.0
97
1
330
A9
92
7
72
1
73
1
93
4
10
20.0
20
-49.5
42
0.0
10
20.0
20
-40.5
42
0.0
10
27.5
20
-40.5
42
0.0
10
27.5
20
-49.5
42
0.0
97
1
330
AA
75
0
76
0
52
45.0
41
0.5
77
0
78
0
47
0.0
98
1
10
0.0
20
0.0
1001
ACAD
1010
0.0
1020
0.0
1030
0.0
0
LWPOLYLINE
5
A9
102
{ACAD_REACTORS
330
AB
102
}
330
1B
100
AcDbEntity
67
0
8
layer 19
62
4
6
ByLayer
370
13
48
1.0
60
0
100
AcDbPolyline
90
8
70
1
38
0.0
39
0.0
10
18.0
20
-50.0
40
0.0
41
0.0
42
0.0
10
10.0
20
-50.0
40
0.0
41
0.0
42
0.0
10
10.0
20
-40.0
40
0.0
41
0.0
42
0.0
10
18.0
20
-40.0
40
0.0
41
0.0
42
0.0
10
20.0
20
-40.0
40
0.0
41
0.0
42
0.0
10
28.0
20
-40.0
40
0.0
41
0.0
42
0.0
10
28.0
20
-50.0
40
0.0
41
0.0
42
0.0
10
20.0
20
-50.0
40
0.0
41
0.0
42
0.0
210
0.0
220
0.0
230
1.0
0
LWPOLYLINE
5
AA
102
{ACAD_REACTORS
330
AB
102
}
330
1B
100
AcDbEntity
67
0
8
layer 19
62
4
6
ByLayer
370
13
48
1.0
60
0
100
AcDbPolyline
90
4
70
1
38
0.0
39
0.0
10
20.0
20
-49.5
40
0.0
41
0.0
42
0.0
10
20.0
20
-40.5
40
0.0
41
0.0
42
0.0
10
27.5
20
-40.5
40
0.0
41
0.0
42
0.0
10
27.5
20
-49.5
40
0.0
41
0.0
42
0.0
210
0.0
220
0.0
230
1.0
0
LWPOLYLINE
5
AD
330
1B
100
AcDbEntity
67
0
8
layer 20
62
3
6
ByLayer
370
-1
48
1.0
60
0
100
AcDbPolyline
90
4
70
1
38
0.0
39
0.0
10
48.0
20
-52.0
40
0.0
41
0.0
42
0.0
10
58.0
20
-52.0
40
0.0
41
0.0
42
0.0
10
58.0
20
-42.0
40
0.0
41
0.0
42
0.0
10
48.0
20
-42.0
40
0.0
41
0.0
42
0.0
210
0.0
220
0.0
230
1.0
0
LWPOLYLINE
5
AF
330
1B
100
AcDbEntity
67
0
8
layer 20
62
3
6
ByLayer
370
-1
48
1.0
60
0
100
AcDbPolyline
90
4
70
1
38
0.0
39
0.0
10
48.5
20
-51.5
40
0.0
41
0.0
42
0.0
10
57.5
20
-51.5
40
0.0
41
0.0
42
0.0
10
57.5
20
-42.5
40
0.0
41
0.0
42
0.0
10
48.5
20
-42.5
40
0.0
41
0.0
42
0.0
210
0.0
220
0.0
230
1.0
0
LWPOLYLINE
5
B0
330
1B
100
AcDbEntity
67
0
8
layer 20
62
2
6
ByLayer
370
-1
48
1.0
60
0
100
AcDbPolyline
90
4
70
1
38
0.0
39
0.0
10
40.0
20
-50.0
40
0.0
41
0.0
42
0.0
10
50.0
20
-50.0
40
0.0
41
0.0
42
0.0
10
50.0
20
-40.0
40
0.0
41
0.0
42
0.0
10
40.0
20
-40.0
40
0.0
41
0.0
42
0.0
210
0.0
220
0.0
230
1.0
0
HATCH
5
B3
330
1B
100
AcDbEntity
67
0
8
layer 20
62
4
6
ByLayer
370
0
48
1.0
60
0
100
AcDbHatch
10
0.0
20
0.0
30
0.0
210
0.0
220
0.0
230
1.0
2
LINE
70
0
71
1
91
2
92
7
72
1
73
1
93
8
10
48.0
20
-50.0
42
0.0
10
40.0
20
-50.0
42
0.0
10
40.0
20
-40.0
42
0.0
10
50.0
20
-40.0
42
0.0
10
50.0
20
-42.0
42
0.0
10
58.0
20
-42.0
42
0.0
10
58.0
20
-52.0
42
0.0
10
48.0
20
-52.0
42
0.0
97
1
330
B1
92
7
72
1
73
1
93
6
10
48.5
20
-50.0
42
0.0
10
50.0
20
-50.0
42
0.0
10
50.0
20
-42.5
42
0.0
10
57.5
20
-42.5
42
0.0
10
57.5
20
-51.5
42
0.0
10
48.5
20
-51.5
42
0.0
97
1
330
B2
75
0
76
0
52
45.0
41
0.5
77
0
78
0
47
0.0
98
1
10
0.0
20
0.0
1001
ACAD
1010
0.0
1020
0.0
1030
0.0
0
LWPOLYLINE
5
B1
102
{ACAD_REACTORS
330
B3
102
}
330
1B
100
AcDbEntity
67
0
8
layer 20
62
4
6
ByLayer
370
13
48
1.0
60
0
100
AcDbPolyline
90
8
70
1
38
0.0
39
0.0
10
48.0
20
-50.0
40
0.0
41
0.0
42
0.0
10
40.0
20
-50.0
40
0.0
41
0.0
42
0.0
10
40.0
20
-40.0
40
0.0
41
0.0
42
0.0
10
50.0
20
-40.0
40
0.0
41
0.0
42
0.0
10
50.0
20
-42.0
40
0.0
41
0.0
42
0.0
10
58.0
20
-42.0
40
0.0
41
0.0
42
0.0
10
58.0
20
-52.0
40
0.0
41
0.0
42
0.0
10
48.0
20
-52.0
40
0.0
41
0.0
42
0.0
210
0.0
220
0.0
230
1.0
0
LWPOLYLINE
5
B2
102
{ACAD_REACTORS
330
B3
102
}
330
1B
100
AcDbEntity
67
0
8
layer 20
62
4
6
ByLayer
370
13
48
1.0
60
0
100
AcDbPolyline
90
6
70
1
38
0.0
39
0.0
10
48.5
20
-50.0
40
0.0
41
0.0
42
0.0
10
50.0
20
-50.0
40
0.0
41
0.0
42
0.0
10
50.0
20
-42.5
40
0.0
41
0.0
42
0.0
10
57.5
20
-42.5
40
0.0
41
0.0
42
0.0
10
57.5
20
-51.5
40
0.0
41
0.0
42
0.0
10
48.5
20
-51.5
40
0.0
41
0.0
42
0.0
210
0.0
220
0.0
230
1.0
0
LWPOLYLINE
5
B5
330
1B
100
AcDbEntity
67
0
8
layer 21
62
3
6
ByLayer
370
-1
48
1.0
60
0
100
AcDbPolyline
90
8
70
1
38
0.0
39
0.0
10
67.0
20
-42.0
40
0.0
41
0.0
42
0.0
10
84.0
20
-42.0
40
0.0
41
0.0
42
0.0
10
84.0
20
-44.0
40
0.0
41
0.0
42
0.0
10
69.0
20
-44.0
40
0.0
41
0.0
42
0.0
10
69.0
20
-46.0
40
0.0
41
0.0
42
0.0
10
84.0
20
-46.0
40
0.0
41
0.0
42
0.0
10
84.0
20
-48.0
40
0.0
41
0.0
42
0.0
10
67.0
20
-48.0
40
0.0
41
0.0
42
0.0
210
0.0
220
0.0
230
1.0
0
LWPOLYLINE
5
B7
330
1B
100
AcDbEntity
67
0
8
layer 21
62
3
6
ByLayer
370
-1
48
1.0
60
0
100
AcDbPolyline
90
8
70
1
38
0.0
39
0.0
10
67.5
20
-42.5
40
0.0
41
0.0
42
0.0
10
83.5
20
-42.5
40
0.0
41
0.0
42
0.0
10
83.5
20
-43.5
40
0.0
41
0.0
42
0.0
10
68.5
20
-43.5
40
0.0
41
0.0
42
0.0
10
68.5
20
-46.5
40
0.0
41
0.0
42
0.0
10
83.5
20
-46.5
40
0.0
41
0.0
42
0.0
10
83.5
20
-47.5
40
0.0
41
0.0
42
0.0
10
67.5
20
-47.5
40
0.0
41
0.0
42
0.0
210
0.0
220
0.0
230
1.0
0
LWPOLYLINE
5
B8
330
1B
100
AcDbEntity
67
0
8
layer 21
62
2
6
ByLayer
370
-1
48
1.0
60
0
100
AcDbPolyline
90
4
70
1
38
0.0
39
0.0
10
70.0
20
-50.0
40
0.0
41
0.0
42
0.0
10
80.0
20
-50.0
40
0.0
41
0.0
42
0.0
10
80.0
20
-40.0
40
0.0
41
0.0
42
0.0
10
70.0
20
-40.0
40
0.0
41
0.0
42
0.0
210
0.0
220
0.0
230
1.0
0
HATCH
5
BE
330
1B
100
AcDbEntity
67
0
8
layer 21
62
4
6
ByLayer
370
0
48
1.0
60
0
100
AcDbHatch
10
0.0
20
0.0
30
0.0
210
0.0
220
0.0
230
1.0
2
LINE
70
0
71
1
91
5
92
7
72
1
73
1
93
16
10
80.0
20
-42.0
42
0.0
10
80.0
20
-40.0
42
0.0
10
70.0
20
-40.0
42
0.0
10
70.0
20
-42.0
42
0.0
10
67.0
20
-42.0
42
0.0
10
67.0
20
-48.0
42
0.0
10
70.0
20
-48.0
42
0.0
10
70.0
20
-50.0
42
0.0
10
80.0
20
-50.0
42
0.0
10
80.0
20
-48.0
42
0.0
10
84.0
20
-48.0
42
0.0
10
84.0
20
-46.0
42
0.0
10
80.0
20
-46.0
42
0.0
10
80.0
20
-44.0
42
0.0
10
84.0
20
-44.0
42
0.0
10
84.0
20
-42.0
42
0.0
97
1
330
B9
92
7
72
1
73
1
93
4
10
80.0
20
-42.5
42
0.0
10
80.0
20
-43.5
42
0.0
10
83.5
20
-43.5
42
0.0
10
83.5
20
-42.5
42
0.0
97
1
330
BA
92
7
72
1
73
1
93
4
10
80.0
20
-46.5
42
0.0
10
80.0
20
-47.5
42
0.0
10
83.5
20
-47.5
42
0.0
10
83.5
20
-46.5
42
0.0
97
1
330
BB
92
7
72
1
73
1
93
4
10
70.0
20
-44.0
42
0.0
10
70.0
20
-46.0
42
0.0
10
69.0
20
-46.0
42
0.0
10
69.0
20
-44.0
42
0.0
97
1
330
BC
92
7
72
1
73
1
93
8
10
70.0
20
-42.5
42
0.0
10
70.0
20
-43.5
42
0.0
10
68.5
20
-43.5
42
0.0
10
68.5
20
-46.5
42
0.0
10
70.0
20
-46.5
42
0.0
10
70.0
20
-47.5
42
0.0
10
67.5
20
-47.5
42
0.0
10
67.5
20
-42.5
42
0.0
97
1
330
BD
75
0
76
0
52
45.0
41
0.5
77
0
78
0
47
0.0
98
1
10
0.0
20
0.0
1001
ACAD
1010
0.0
1020
0.0
1030
0.0
0
LWPOLYLINE
5
B9
102
{ACAD_REACTORS
330
BE
102
}
330
1B
100
AcDbEntity
67
0
8
layer 21
62
4
6
ByLayer
370
13
48
1.0
60
0
100
AcDbPolyline
90
16
70
1
38
0.0
39
0.0
10
80.0
20
-42.0
40
0.0
41
0.0
42
0.0
10
80.0
20
-40.0
40
0.0
41
0.0
42
0.0
10
70.0
20
-40.0
40
0.0
41
0.0
42
0.0
10
70.0
20
-42.0
40
0.0
41
0.0
42
0.0
10
67.0
20
-42.0
40
0.0
41
0.0
42
0.0
10
67.0
20
-48.0
40
0.0
41
0.0
42
0.0
10
70.0
20
-48.0
40
0.0
41
0.0
42
0.0
10
70.0
20
-50.0
40
0.0
41
0.0
42
0.0
10
80.0
20
-50.0
40
0.0
41
0.0
42
0.0
10
80.0
20
-48.0
40
0.0
41
0.0
42
0.0
10
84.0
20
-48.0
40
0.0
41
0.0
42
0.0
10
84.0
20
-46.0
40
0.0
41
0.0
42
0.0
10
80.0
20
-46.0
40
0.0
41
0.0
42
0.0
10
80.0
20
-44.0
40
0.0
41
0.0
42
0.0
10
84.0
20
-44.0
40
0.0
41
0.0
42
0.0
10
84.0
20
-42.0
40
0.0
41
0.0
42
0.0
210
0.0
220
0.0
230
1.0
0
LWPOLYLINE
5
BA
102
{ACAD_REACTORS
330
BE
102
}
330
1B
100
AcDbEntity
67
0
8
layer 21
62
4
6
ByLayer
370
13
48
1.0
60
0
100
AcDbPolyline
90
4
70
1
38
0.0
39
0.0
10
80.0
20
-42.5
40
0.0
41
0.0
42
0.0
10
80.0
20
-43.5
40
0.0
41
0.0
42
0.0
10
83.5
20
-43.5
40
0.0
41
0.0
42
0.0
10
83.5
20
-42.5
40
0.0
41
0.0
42
0.0
210
0.0
220
0.0
230
1.0
0
LWPOLYLINE
5
BB
102
{ACAD_REACTORS
330
BE
102
}
330
1B
100
AcDbEntity
67
0
8
layer 21
62
4
6
ByLayer
370
13
48
1.0
60
0
100
AcDbPolyline
90
4
70
1
38
0.0
39
0.0
10
80.0
20
-46.5
40
0.0
41
0.0
42
0.0
10
80.0
20
-47.5
40
0.0
41
0.0
42
0.0
10
83.5
20
-47.5
40
0.0
41
0.0
42
0.0
10
83.5
20
-46.5
40
0.0
41
0.0
42
0.0
210
0.0
220
0.0
230
1.0
0
LWPOLYLINE
5
BC
102
{ACAD_REACTORS
330
BE
102
}
330
1B
100
AcDbEntity
67
0
8
layer 21
62
4
6
ByLayer
370
13
48
1.0
60
0
100
AcDbPolyline
90
4
70
1
38
0.0
39
0.0
10
70.0
20
-44.0
40
0.0
41
0.0
42
0.0
10
70.0
20
-46.0
40
0.0
41
0.0
42
0.0
10
69.0
20
-46.0
40
0.0
41
0.0
42
0.0
10
69.0
20
-44.0
40
0.0
41
0.0
42
0.0
210
0.0
220
0.0
230
1.0
0
LWPOLYLINE
5
BD
102
{ACAD_REACTORS
330
BE
102
}
330
1B
100
AcDbEntity
67
0
8
layer 21
62
4
6
ByLayer
370
13
48
1.0
60
0
100
AcDbPolyline
90
8
70
1
38
0.0
39
0.0
10
70.0
20
-42.5
40
0.0
41
0.0
42
0.0
10
70.0
20
-43.5
40
0.0
41
0.0
42
0.0
10
68.5
20
-43.5
40
0.0
41
0.0
42
0.0
10
68.5
20
-46.5
40
0.0
41
0.0
42
0.0
10
70.0
20
-46.5
40
0.0
41
0.0
42
0.0
10
70.0
20
-47.5
40
0.0
41
0.0
42
0.0
10
67.5
20
-47.5
40
0.0
41
0.0
42
0.0
10
67.5
20
-42.5
40
0.0
41
0.0
42
0.0
210
0.0
220
0.0
230
1.0
0
LWPOLYLINE
5
C0
330
1B
100
AcDbEntity
67
0
8
layer 22
62
3
6
ByLayer
370
-1
48
1.0
60
0
100
AcDbPolyline
90
4
70
1
38
0.0
39
0.0
10
21.0
20
-70.0
40
0.0
41
0.0
42
0.0
10
31.0
20
-70.0
40
0.0
41
0.0
42
0.0
10
31.0
20
-60.0
40
0.0
41
0.0
42
0.0
10
21.0
20
-60.0
40
0.0
41
0.0
42
0.31265021563387
210
0.0
220
0.0
230
1.0
0
LWPOLYLINE
5
C2
330
1B
100
AcDbEntity
67
0
8
layer 22
62
3
6
ByLayer
370
-1
48
1.0
60
0
100
AcDbPolyline
90
4
70
1
38
0.0
39
0.0
10
21.2667489387557
20
-69.5
40
0.0
41
0.0
42
0.0
10
30.5
20
-69.5
40
0.0
41
0.0
42
0.0
10
30.5
20
-60.5
40
0.0
41
0.0
42
0.0
10
21.2667489387557
20
-60.5
40
0.0
41
0.0
42
0.29555555931667
210
0.0
220
0.0
230
1.0
0
LWPOLYLINE
5
C3
330
1B
100
AcDbEntity
67
0
8
layer 22
62
2
6
ByLayer
370
-1
48
1.0
60
0
100
AcDbPolyline
90
4
70
1
38
0.0
39
0.0
10
10.0
20
-70.0
40
0.0
41
0.0
42
0.0
10
20.0
20
-70.0
40
0.0
41
0.0
42
-0.31265021563387
10
20.0
20
-60.0
40
0.0
41
0.0
42
0.0
10
10.0
20
-60.0
40
0.0
41
0.0
42
0.0
210
0.0
220
0.0
230
1.0
0
HATCH
5
C5
330
1B
100
AcDbEntity
67
0
8
layer 22
62
4
6
ByLayer
370
0
48
1.0
60
0
100
AcDbHatch
10
0.0
20
0.0
30
0.0
210
0.0
220
0.0
230
1.0
2
LINE
70
0
71
1
91
1
92
7
72
1
73
1
93
4
10
10.0
20
-70.0
42
0.0
10
20.0
20
-70.0
42
-0.31265021563387
10
20.0
20
-60.0
42
0.0
10
10.0
20
-60.0
42
0.0
97
1
330
C4
75
0
76
0
52
45.0
41
0.5
77
0
78
0
47
0.0
98
1
10
0.0
20
0.0
1001
ACAD
1010
0.0
1020
0.0
1030
0.0
0
LWPOLYLINE
5
C4
102
{ACAD_REACTORS
330
C5
102
}
330
1B
100
AcDbEntity
67
0
8
layer 22
62
4
6
ByLayer
370
13
48
1.0
60
0
100
AcDbPolyline
90
4
70
1
38
0.0
39
0.0
10
10.0
20
-70.0
40
0.0
41
0.0
42
0.0
10
20.0
20
-70.0
40
0.0
41
0.0
42
-0.31265021563387
10
20.0
20
-60.0
40
0.0
41
0.0
42
0.0
10
10.0
20
-60.0
40
0.0
41
0.0
42
0.0
210
0.0
220
0.0
230
1.0
0
HATCH
5
C8
330
1B
100
AcDbEntity
67
0
8
layer 22
62
4
6
ByLayer
370
0
48
1.0
60
0
100
AcDbHatch
10
0.0
20
0.0
30
0.0
210
0.0
220
0.0
230
1.0
2
LINE
70
0
71
1
91
2
92
7
72
1
73
1
93
4
10
21.0
20
-70.0
42
0.0
10
31.0
20
-70.0
42
0.0
10
31.0
20
-60.0
42
0.0
10
21.0
20
-60.0
42
0.31265021563387
97
1
330
C6
92
7
72
1
73
1
93
4
10
21.2667489387557
20
-69.5
42
0.0
10
30.5
20
-69.5
42
0.0
10
30.5
20
-60.5
42
0.0
10
21.2667489387557
20
-60.5
42
0.29555555931667
97
1
330
C7
75
0
76
0
52
45.0
41
0.5
77
0
78
0
47
0.0
98
1
10
0.0
20
0.0
1001
ACAD
1010
0.0
1020
0.0
1030
0.0
0
LWPOLYLINE
5
C6
102
{ACAD_REACTORS
330
C8
102
}
330
1B
100
AcDbEntity
67
0
8
layer 22
62
4
6
ByLayer
370
13
48
1.0
60
0
100
AcDbPolyline
90
4
70
1
38
0.0
39
0.0
10
21.0
20
-70.0
40
0.0
41
0.0
42
0.0
10
31.0
20
-70.0
40
0.0
41
0.0
42
0.0
10
31.0
20
-60.0
40
0.0
41
0.0
42
0.0
10
21.0
20
-60.0
40
0.0
41
0.0
42
0.31265021563387
210
0.0
220
0.0
230
1.0
0
LWPOLYLINE
5
C7
102
{ACAD_REACTORS
330
C8
102
}
330
1B
100
AcDbEntity
67
0
8
layer 22
62
4
6
ByLayer
370
13
48
1.0
60
0
100
AcDbPolyline
90
4
70
1
38
0.0
39
0.0
10
21.2667489387557
20
-69.5
40
0.0
41
0.0
42
0.0
10
30.5
20
-69.5
40
0.0
41
0.0
42
0.0
10
30.5
20
-60.5
40
0.0
41
0.0
42
0.0
10
21.2667489387557
20
-60.5
40
0.0
41
0.0
42
0.29555555931667
210
0.0
220
0.0
230
1.0
0
LWPOLYLINE
5
CA
330
1B
100
AcDbEntity
67
0
8
layer 23
62
3
6
ByLayer
370
-1
48
1.0
60
0
100
AcDbPolyline
90
4
70
1
38
0.0
39
0.0
10
50.0
20
-70.0
40
0.0
41
0.0
42
0.0
10
60.0
20
-70.0
40
0.0
41
0.0
42
0.0
10
60.0
20
-60.0
40
0.0
41
0.0
42
0.0
10
50.0
20
-60.0
40
0.0
41
0.0
42
0.31265021563387
210
0.0
220
0.0
230
1.0
0
LWPOLYLINE
5
CC
330
1B
100
AcDbEntity
67
0
8
layer 23
62
3
6
ByLayer
370
-1
48
1.0
60
0
100
AcDbPolyline
90
4
70
1
38
0.0
39
0.0
10
50.2667489387557
20
-69.5
40
0.0
41
0.0
42
0.0
10
59.5
20
-69.5
40
0.0
41
0.0
42
0.0
10
59.5
20
-60.5
40
0.0
41
0.0
42
0.0
10
50.2667489387557
20
-60.5
40
0.0
41
0.0
42
0.29555555931667
210
0.0
220
0.0
230
1.0
0
LWPOLYLINE
5
CD
330
1B
100
AcDbEntity
67
0
8
layer 23
62
2
6
ByLayer
370
-1
48
1.0
60
0
100
AcDbPolyline
90
4
70
1
38
0.0
39
0.0
10
40.0
20
-70.0
40
0.0
41
0.0
42
0.0
10
50.0
20
-70.0
40
0.0
41
0.0
42
-0.31265021563387
10
50.0
20
-60.0
40
0.0
41
0.0
42
0.0
10
40.0
20
-60.0
40
0.0
41
0.0
42
0.0
210
0.0
220
0.0
230
1.0
0
HATCH
5
D0
330
1B
100
AcDbEntity
67
0
8
layer 23
62
4
6
ByLayer
370
0
48
1.0
60
0
100
AcDbHatch
10
0.0
20
0.0
30
0.0
210
0.0
220
0.0
230
1.0
2
LINE
70
0
71
1
91
2
92
7
72
1
73
1
93
6
10
40.0
20
-70.0
42
0.0
10
50.0
20
-70.0
42
0.0
10
60.0
20
-70.0
42
0.0
10
60.0
20
-60.0
42
0.0
10
50.0
20
-60.0
42
0.0
10
40.0
20
-60.0
42
0.0
97
1
330
CE
92
7
72
1
73
1
93
4
10
50.2667489387557
20
-69.5
42
0.0
10
59.5
20
-69.5
42
0.0
10
59.5
20
-60.5
42
0.0
10
50.2667489387557
20
-60.5
42
0.29555555931667
97
1
330
CF
75
0
76
0
52
45.0
41
0.5
77
0
78
0
47
0.0
98
1
10
0.0
20
0.0
1001
ACAD
1010
0.0
1020
0.0
1030
0.0
0
LWPOLYLINE
5
CE
102
{ACAD_REACTORS
330
D0
102
}
330
1B
100
AcDbEntity
67
0
8
layer 23
62
4
6
ByLayer
370
13
48
1.0
60
0
100
AcDbPolyline
90
6
70
1
38
0.0
39
0.0
10
40.0
20
-70.0
40
0.0
41
0.0
42
0.0
10
50.0
20
-70.0
40
0.0
41
0.0
42
0.0
10
60.0
20
-70.0
40
0.0
41
0.0
42
0.0
10
60.0
20
-60.0
40
0.0
41
0.0
42
0.0
10
50.0
20
-60.0
40
0.0
41
0.0
42
0.0
10
40.0
20
-60.0
40
0.0
41
0.0
42
0.0
210
0.0
220
0.0
230
1.0
0
LWPOLYLINE
5
CF
102
{ACAD_REACTORS
330
D0
102
}
330
1B
100
AcDbEntity
67
0
8
layer 23
62
4
6
ByLayer
370
13
48
1.0
60
0
100
AcDbPolyline
90
4
70
1
38
0.0
39
0.0
10
50.2667489387557
20
-69.5
40
0.0
41
0.0
42
0.0
10
59.5
20
-69.5
40
0.0
41
0.0
42
0.0
10
59.5
20
-60.5
40
0.0
41
0.0
42
0.0
10
50.2667489387557
20
-60.5
40
0.0
41
0.0
42
0.29555555931667
210
0.0
220
0.0
230
1.0
0
LWPOLYLINE
5
D2
330
1B
100
AcDbEntity
67
0
8
layer 24
62
3
6
ByLayer
370
-1
48
1.0
60
0
100
AcDbPolyline
90
4
70
1
38
0.0
39
0.0
10
70.0
20
-70.0
40
0.0
41
0.0
42
0.0
10
80.0
20
-70.0
40
0.0
41
0.0
42
0.0
10
80.0
20
-60.0
40
0.0
41
0.0
42
0.0
10
70.0
20
-60.0
40
0.0
41
0.0
42
0.31265021563387
210
0.0
220
0.0
230
1.0
0
LWPOLYLINE
5
D4
330
1B
100
AcDbEntity
67
0
8
layer 24
62
3
6
ByLayer
370
-1
48
1.0
60
0
100
AcDbPolyline
90
4
70
1
38
0.0
39
0.0
10
70.2667489387557
20
-69.5
40
0.0
41
0.0
42
0.0
10
79.5
20
-69.5
40
0.0
41
0.0
42
0.0
10
79.5
20
-60.5
40
0.0
41
0.0
42
0.0
10
70.2667489387557
20
-60.5
40
0.0
41
0.0
42
0.29555555931667
210
0.0
220
0.0
230
1.0
0
LWPOLYLINE
5
D5
330
1B
100
AcDbEntity
67
0
8
layer 24
62
2
6
ByLayer
370
-1
48
1.0
60
0
100
AcDbPolyline
90
4
70
1
38
0.0
39
0.0
10
70.0
20
-70.0
40
0.0
41
0.0
42
0.0
10
80.0
20
-70.0
40
0.0
41
0.0
42
0.0
10
80.0
20
-60.0
40
0.0
41
0.0
42
0.0
10
70.0
20
-60.0
40
0.0
41
0.0
42
0.31265021563387
210
0.0
220
0.0
230
1.0
0
HATCH
5
D8
330
1B
100
AcDbEntity
67
0
8
layer 24
62
4
6
ByLayer
370
0
48
1.0
60
0
100
AcDbHatch
10
0.0
20
0.0
30
0.0
210
0.0
220
0.0
230
1.0
2
LINE
70
0
71
1
91
2
92
7
72
1
73
1
93
4
10
70.0
20
-70.0
42
0.0
10
80.0
20
-70.0
42
0.0
10
80.0
20
-60.0
42
0.0
10
70.0
20
-60.0
42
0.31265021563387
97
1
330
D6
92
7
72
1
73
1
93
4
10
70.2667489387557
20
-69.5
42
0.0
10
79.5
20
-69.5
42
0.0
10
79.5
20
-60.5
42
0.0
10
70.2667489387557
20
-60.5
42
0.29555555931667
97
1
330
D7
75
0
76
0
52
45.0
41
0.5
77
0
78
0
47
0.0
98
1
10
0.0
20
0.0
1001
ACAD
1010
0.0
1020
0.0
1030
0.0
0
LWPOLYLINE
5
D6
102
{ACAD_REACTORS
330
D8
102
}
330
1B
100
AcDbEntity
67
0
8
layer 24
62
4
6
ByLayer
370
13
48
1.0
60
0
100
AcDbPolyline
90
4
70
1
38
0.0
39
0.0
10
70.0
20
-70.0
40
0.0
41
0.0
42
0.0
10
80.0
20
-70.0
40
0.0
41
0.0
42
0.0
10
80.0
20
-60.0
40
0.0
41
0.0
42
0.0
10
70.0
20
-60.0
40
0.0
41
0.0
42
0.31265021563387
210
0.0
220
0.0
230
1.0
0
LWPOLYLINE
5
D7
102
{ACAD_REACTORS
330
D8
102
}
330
1B
100
AcDbEntity
67
0
8
layer 24
62
4
6
ByLayer
370
13
48
1.0
60
0
100
AcDbPolyline
90
4
70
1
38
0.0
39
0.0
10
70.2667489387557
20
-69.5
40
0.0
41
0.0
42
0.0
10
79.5
20
-69.5
40
0.0
41
0.0
42
0.0
10
79.5
20
-60.5
40
0.0
41
0.0
42
0.0
10
70.2667489387557
20
-60.5
40
0.0
41
0.0
42
0.29555555931667
210
0.0
220
0.0
230
1.0
0
LWPOLYLINE
5
DA
330
1B
100
AcDbEntity
67
0
8
layer 25
62
3
6
ByLayer
370
-1
48
1.0
60
0
100
AcDbPolyline
90
4
70
1
38
0.0
39
0.0
10
91.0
20
-68.0
40
0.0
41
0.0
42
0.0
10
98.0
20
-68.0
40
0.0
41
0.0
42
0.0
10
98.0
20
-62.0
40
0.0
41
0.0
42
0.0
10
91.0
20
-62.0
40
0.0
41
0.0
42
0.31265021563387
210
0.0
220
0.0
230
1.0
0
LWPOLYLINE
5
DC
330
1B
100
AcDbEntity
67
0
8
layer 25
62
3
6
ByLayer
370
-1
48
1.0
60
0
100
AcDbPolyline
90
4
70
1
38
0.0
39
0.0
10
91.2702539236171
20
-67.5
40
0.0
41
0.0
42
0.0
10
97.5
20
-67.5
40
0.0
41
0.0
42
0.0
10
97.5
20
-62.5
40
0.0
41
0.0
42
0.0
10
91.2702539236171
20
-62.5
40
0.0
41
0.0
42
0.283281828207466
210
0.0
220
0.0
230
1.0
0
LWPOLYLINE
5
DD
330
1B
100
AcDbEntity
67
0
8
layer 25
62
2
6
ByLayer
370
-1
48
1.0
60
0
100
AcDbPolyline
90
4
70
1
38
0.0
39
0.0
10
90.0
20
-70.0
40
0.0
41
0.0
42
0.0
10
100.0
20
-70.0
40
0.0
41
0.0
42
0.0
10
100.0
20
-60.0
40
0.0
41
0.0
42
0.0
10
90.0
20
-60.0
40
0.0
41
0.0
42
0.31265021563387
210
0.0
220
0.0
230
1.0
0
HATCH
5
DF
330
1B
100
AcDbEntity
67
0
8
layer 25
62
4
6
ByLayer
370
0
48
1.0
60
0
100
AcDbHatch
10
0.0
20
0.0
30
0.0
210
0.0
220
0.0
230
1.0
2
LINE
70
0
71
1
91
1
92
7
72
1
73
1
93
4
10
90.0
20
-70.0
42
0.0
10
100.0
20
-70.0
42
0.0
10
100.0
20
-60.0
42
0.0
10
90.0
20
-60.0
42
0.31265021563387
97
1
330
DE
75
0
76
0
52
45.0
41
0.5
77
0
78
0
47
0.0
98
1
10
0.0
20
0.0
1001
ACAD
1010
0.0
1020
0.0
1030
0.0
0
LWPOLYLINE
5
DE
102
{ACAD_REACTORS
330
DF
102
}
330
1B
100
AcDbEntity
67
0
8
layer 25
62
4
6
ByLayer
370
13
48
1.0
60
0
100
AcDbPolyline
90
4
70
1
38
0.0
39
0.0
10
90.0
20
-70.0
40
0.0
41
0.0
42
0.0
10
100.0
20
-70.0
40
0.0
41
0.0
42
0.0
10
100.0
20
-60.0
40
0.0
41
0.0
42
0.0
10
90.0
20
-60.0
40
0.0
41
0.0
42
0.31265021563387
210
0.0
220
0.0
230
1.0
0
LWPOLYLINE
5
E1
330
1B
100
AcDbEntity
67
0
8
layer 26
62
3
6
ByLayer
370
-1
48
1.0
60
0
100
AcDbPolyline
90
4
70
1
38
0.0
39
0.0
10
18.0
20
-90.0
40
0.0
41
0.0
42
0.0
10
28.0
20
-90.0
40
0.0
41
0.0
42
0.0
10
28.0
20
-80.0
40
0.0
41
0.0
42
0.0
10
18.0
20
-80.0
40
0.0
41
0.0
42
0.31265021563387
210
0.0
220
0.0
230
1.0
0
LWPOLYLINE
5
E3
330
1B
100
AcDbEntity
67
0
8
layer 26
62
3
6
ByLayer
370
-1
48
1.0
60
0
100
AcDbPolyline
90
4
70
1
38
0.0
39
0.0
10
18.2667489387557
20
-89.5
40
0.0
41
0.0
42
0.0
10
27.5
20
-89.5
40
0.0
41
0.0
42
0.0
10
27.5
20
-80.5
40
0.0
41
0.0
42
0.0
10
18.2667489387557
20
-80.5
40
0.0
41
0.0
42
0.29555555931667
210
0.0
220
0.0
230
1.0
0
LWPOLYLINE
5
E4
330
1B
100
AcDbEntity
67
0
8
layer 26
62
2
6
ByLayer
370
-1
48
1.0
60
0
100
AcDbPolyline
90
4
70
1
38
0.0
39
0.0
10
10.0
20
-90.0
40
0.0
41
0.0
42
0.0
10
20.0
20
-90.0
40
0.0
41
0.0
42
-0.31265021563387
10
20.0
20
-80.0
40
0.0
41
0.0
42
0.0
10
10.0
20
-80.0
40
0.0
41
0.0
42
0.0
210
0.0
220
0.0
230
1.0
0
HATCH
5
E7
330
1B
100
AcDbEntity
67
0
8
layer 26
62
4
6
ByLayer
370
0
48
1.0
60
0
100
AcDbHatch
10
0.0
20
0.0
30
0.0
210
0.0
220
0.0
230
1.0
2
LINE
70
0
71
1
91
2
92
7
72
1
73
1
93
8
10
18.0
20
-90.0
42
0.0
10
10.0
20
-90.0
42
0.0
10
10.0
20
-80.0
42
0.0
10
18.0
20
-80.0
42
0.0
10
20.0
20
-80.0
42
0.0
10
28.0
20
-80.0
42
0.0
10
28.0
20
-90.0
42
0.0
10
20.0
20
-90.0
42
0.0
97
1
330
E5
92
7
72
1
73
1
93
4
10
19.6779895062976
20
-89.5
42
-0.275831240992655
10
19.6779895062976
20
-80.5
42
0.0
10
27.5
20
-80.5
42
0.0
10
27.5
20
-89.5
42
0.0
97
1
330
E6
75
0
76
0
52
45.0
41
0.5
77
0
78
0
47
0.0
98
1
10
0.0
20
0.0
1001
ACAD
1010
0.0
1020
0.0
1030
0.0
0
LWPOLYLINE
5
E5
102
{ACAD_REACTORS
330
E7
102
}
330
1B
100
AcDbEntity
67
0
8
layer 26
62
4
6
ByLayer
370
13
48
1.0
60
0
100
AcDbPolyline
90
8
70
1
38
0.0
39
0.0
10
18.0
20
-90.0
40
0.0
41
0.0
42
0.0
10
10.0
20
-90.0
40
0.0
41
0.0
42
0.0
10
10.0
20
-80.0
40
0.0
41
0.0
42
0.0
10
18.0
20
-80.0
40
0.0
41
0.0
42
0.0
10
20.0
20
-80.0
40
0.0
41
0.0
42
0.0
10
28.0
20
-80.0
40
0.0
41
0.0
42
0.0
10
28.0
20
-90.0
40
0.0
41
0.0
42
0.0
10
20.0
20
-90.0
40
0.0
41
0.0
42
0.0
210
0.0
220
0.0
230
1.0
0
LWPOLYLINE
5
E6
102
{ACAD_REACTORS
330
E7
102
}
330
1B
100
AcDbEntity
67
0
8
layer 26
62
4
6
ByLayer
370
13
48
1.0
60
0
100
AcDbPolyline
90
4
70
1
38
0.0
39
0.0
10
19.6779895062976
20
-89.5
40
0.0
41
0.0
42
-0.275831240992655
10
19.6779895062976
20
-80.5
40
0.0
41
0.0
42
0.0
10
27.5
20
-80.5
40
0.0
41
0.0
42
0.0
10
27.5
20
-89.5
40
0.0
41
0.0
42
0.0
210
0.0
220
0.0
230
1.0
0
LWPOLYLINE
5
E9
330
1B
100
AcDbEntity
67
0
8
layer 27
62
3
6
ByLayer
370
-1
48
1.0
60
0
100
AcDbPolyline
90
4
70
1
38
0.0
39
0.0
10
48.0
20
-92.0
40
0.0
41
0.0
42
0.0
10
58.0
20
-92.0
40
0.0
41
0.0
42
0.0
10
58.0
20
-82.0
40
0.0
41
0.0
42
0.0
10
48.0
20
-82.0
40
0.0
41
0.0
42
0.31265021563387
210
0.0
220
0.0
230
1.0
0
LWPOLYLINE
5
EB
330
1B
100
AcDbEntity
67
0
8
layer 27
62
3
6
ByLayer
370
-1
48
1.0
60
0
100
AcDbPolyline
90
4
70
1
38
0.0
39
0.0
10
48.2667489387557
20
-91.5
40
0.0
41
0.0
42
0.0
10
57.5
20
-91.5
40
0.0
41
0.0
42
0.0
10
57.5
20
-82.5
40
0.0
41
0.0
42
0.0
10
48.2667489387557
20
-82.5
40
0.0
41
0.0
42
0.29555555931667
210
0.0
220
0.0
230
1.0
0
LWPOLYLINE
5
EC
330
1B
100
AcDbEntity
67
0
8
layer 27
62
2
6
ByLayer
370
-1
48
1.0
60
0
100
AcDbPolyline
90
4
70
1
38
0.0
39
0.0
10
40.0
20
-90.0
40
0.0
41
0.0
42
0.0
10
50.0
20
-90.0
40
0.0
41
0.0
42
-0.31265021563387
10
50.0
20
-80.0
40
0.0
41
0.0
42
0.0
10
40.0
20
-80.0
40
0.0
41
0.0
42
0.0
210
0.0
220
0.0
230
1.0
0
HATCH
5
EF
330
1B
100
AcDbEntity
67
0
8
layer 27
62
4
6
ByLayer
370
0
48
1.0
60
0
100
AcDbHatch
10
0.0
20
0.0
30
0.0
210
0.0
220
0.0
230
1.0
2
LINE
70
0
71
1
91
2
92
7
72
1
73
1
93
8
10
46.965321462836
20
-90.0
42
0.0
10
40.0
20
-90.0
42
0.0
10
40.0
20
-80.0
42
0.0
10
50.0
20
-80.0
42
0.0643992160784995
10
48.965321462836
20
-82.0
42
0.0
10
58.0
20
-82.0
42
0.0
10
58.0
20
-92.0
42
0.0
10
48.0
20
-92.0
42
-0.0643992160784994
97
1
330
ED
92
7
72
1
73
1
93
6
10
47.4995017780595
20
-90.0
42
0.0
10
50.0
20
-90.0
42
-0.227521254077911
10
48.8002896166125
20
-82.5
42
0.0
10
57.5
20
-82.5
42
0.0
10
57.5
20
-91.5
42
0.0
10
48.2667489387557
20
-91.5
42
-0.0510166830012767
97
1
330
EE
75
0
76
0
52
45.0
41
0.5
77
0
78
0
47
0.0
98
1
10
0.0
20
0.0
1001
ACAD
1010
0.0
1020
0.0
1030
0.0
0
LWPOLYLINE
5
ED
102
{ACAD_REACTORS
330
EF
102
}
330
1B
100
AcDbEntity
67
0
8
layer 27
62
4
6
ByLayer
370
13
48
1.0
60
0
100
AcDbPolyline
90
8
70
1
38
0.0
39
0.0
10
46.965321462836
20
-90.0
40
0.0
41
0.0
42
0.0
10
40.0
20
-90.0
40
0.0
41
0.0
42
0.0
10
40.0
20
-80.0
40
0.0
41
0.0
42
0.0
10
50.0
20
-80.0
40
0.0
41
0.0
42
0.0643992160784995
10
48.965321462836
20
-82.0
40
0.0
41
0.0
42
0.0
10
58.0
20
-82.0
40
0.0
41
0.0
42
0.0
10
58.0
20
-92.0
40
0.0
41
0.0
42
0.0
10
48.0
20
-92.0
40
0.0
41
0.0
42
-0.0643992160784994
210
0.0
220
0.0
230
1.0
0
LWPOLYLINE
5
EE
102
{ACAD_REACTORS
330
EF
102
}
330
1B
100
AcDbEntity
67
0
8
layer 27
62
4
6
ByLayer
370
13
48
1.0
60
0
100
AcDbPolyline
90
6
70
1
38
0.0
39
0.0
10
47.4995017780595
20
-90.0
40
0.0
41
0.0
42
0.0
10
50.0
20
-90.0
40
0.0
41
0.0
42
-0.227521254077911
10
48.8002896166125
20
-82.5
40
0.0
41
0.0
42
0.0
10
57.5
20
-82.5
40
0.0
41
0.0
42
0.0
10
57.5
20
-91.5
40
0.0
41
0.0
42
0.0
10
48.2667489387557
20
-91.5
40
0.0
41
0.0
42
-0.0510166830012767
210
0.0
220
0.0
230
1.0
0
LWPOLYLINE
5
F1
330
1B
100
AcDbEntity
67
0
8
layer 28
62
3
6
ByLayer
370
-1
48
1.0
60
0
100
AcDbPolyline
90
8
70
1
38
0.0
39
0.0
10
67.0
20
-82.0
40
0.0
41
0.0
42
-0.118049940810346
10
84.0
20
-82.0
40
0.0
41
0.0
42
0.0
10
84.0
20
-84.0
40
0.0
41
0.0
42
0.0
10
69.0
20
-84.0
40
0.0
41
0.0
42
0.0
10
69.0
20
-86.0
40
0.0
41
0.0
42
0.0
10
84.0
20
-86.0
40
0.0
41
0.0
42
0.0
10
84.0
20
-88.0
40
0.0
41
0.0
42
-0.118049940810346
10
67.0
20
-88.0
40
0.0
41
0.0
42
0.0
210
0.0
220
0.0
230
1.0
0
LWPOLYLINE
5
F3
330
1B
100
AcDbEntity
67
0
8
layer 28
62
3
6
ByLayer
370
-1
48
1.0
60
0
100
AcDbPolyline
90
8
70
1
38
0.0
39
0.0
10
67.5
20
-82.3966301403539
40
0.0
41
0.0
42
-0.112506829655227
10
83.5
20
-82.3966301403539
40
0.0
41
0.0
42
0.0
10
83.5
20
-83.5
40
0.0
41
0.0
42
0.0
10
68.5
20
-83.5
40
0.0
41
0.0
42
0.0
10
68.5
20
-86.5
40
0.0
41
0.0
42
0.0
10
83.5
20
-86.5
40
0.0
41
0.0
42
0.0
10
83.5
20
-87.6033698596461
40
0.0
41
0.0
42
-0.112506829655227
10
67.5
20
-87.6033698596461
40
0.0
41
0.0
42
0.0
210
0.0
220
0.0
230
1.0
0
LWPOLYLINE
5
F4
330
1B
100
AcDbEntity
67
0
8
layer 28
62
2
6
ByLayer
370
-1
48
1.0
60
0
100
AcDbPolyline
90
4
70
1
38
0.0
39
0.0
10
70.0
20
-90.0
40
0.0
41
0.0
42
0.0
10
80.0
20
-90.0
40
0.0
41
0.0
42
-0.31265021563387
10
80.0
20
-80.0
40
0.0
41
0.0
42
0.0
10
70.0
20
-80.0
40
0.0
41
0.0
42
0.0
210
0.0
220
0.0
230
1.0
0
HATCH
5
FA
330
1B
100
AcDbEntity
67
0
8
layer 28
62
4
6
ByLayer
370
0
48
1.0
60
0
100
AcDbHatch
10
0.0
20
0.0
30
0.0
210
0.0
220
0.0
230
1.0
2
LINE
70
0
71
1
91
5
92
7
72
1
73
1
93
16
10
79.304157127562
20
-81.1953392999078
42
-0.0394540874249319
10
80.0
20
-80.0
42
0.0
10
70.0
20
-80.0
42
0.0
10
70.0
20
-81.4132988484677
42
0.0209444208593792
10
67.0
20
-82.0
42
0.0
10
67.0
20
-88.0
42
0.0209444208593785
10
70.0
20
-88.5867011515323
42
0.0
10
70.0
20
-90.0
42
0.0
10
80.0
20
-90.0
42
-0.0394540874249322
10
79.304157127562
20
-88.8046607000922
42
0.0326638459533189
10
84.0
20
-88.0
42
0.0
10
84.0
20
-86.0
42
0.0
10
78.4938969526595
20
-86.0
42
-0.0571480308288162
10
78.4938969526595
20
-84.0
42
0.0
10
84.0
20
-84.0
42
0.0
10
84.0
20
-82.0
42
0.0326638459533189
97
1
330
F5
92
7
72
1
73
1
93
4
10
79.0904419541548
20
-81.6760512774351
42
0.0542125595502831
10
78.5658630009862
20
-83.5
42
0.0
10
83.5
20
-83.5
42
0.0
10
83.5
20
-82.3966301403539
42
0.0310550679208531
97
1
330
F6
92
7
72
1
73
1
93
4
10
78.5658630009862
20
-86.5
42
0.0542125595502831
10
79.0904419541548
20
-88.3239487225649
42
0.0310550679208533
10
83.5
20
-87.6033698596461
42
0.0
10
83.5
20
-86.5
42
0.0
97
1
330
F7
92
7
72
1
73
1
93
4
10
70.0
20
-84.0
42
0.0
10
70.0
20
-86.0
42
0.0
10
69.0
20
-86.0
42
0.0
10
69.0
20
-84.0
42
0.0
97
1
330
F8
92
7
72
1
73
1
93
8
10
70.0
20
-81.9191543734116
42
0.0
10
70.0
20
-83.5
42
0.0
10
68.5
20
-83.5
42
0.0
10
68.5
20
-86.5
42
0.0
10
70.0
20
-86.5
42
0.0
10
70.0
20
-88.0808456265884
42
-0.01767876064241
10
67.5
20
-87.6033698596461
42
0.0
10
67.5
20
-82.3966301403539
42
-0.0176787606424096
97
1
330
F9
75
0
76
0
52
45.0
41
0.5
77
0
78
0
47
0.0
98
1
10
0.0
20
0.0
1001
ACAD
1010
0.0
1020
0.0
1030
0.0
0
LWPOLYLINE
5
F5
102
{ACAD_REACTORS
330
FA
102
}
330
1B
100
AcDbEntity
67
0
8
layer 28
62
4
6
ByLayer
370
13
48
1.0
60
0
100
AcDbPolyline
90
16
70
1
38
0.0
39
0.0
10
79.304157127562
20
-81.1953392999078
40
0.0
41
0.0
42
-0.0394540874249319
10
80.0
20
-80.0
40
0.0
41
0.0
42
0.0
10
70.0
20
-80.0
40
0.0
41
0.0
42
0.0
10
70.0
20
-81.4132988484677
40
0.0
41
0.0
42
0.0209444208593792
10
67.0
20
-82.0
40
0.0
41
0.0
42
0.0
10
67.0
20
-88.0
40
0.0
41
0.0
42
0.0209444208593785
10
70.0
20
-88.5867011515323
40
0.0
41
0.0
42
0.0
10
70.0
20
-90.0
40
0.0
41
0.0
42
0.0
10
80.0
20
-90.0
40
0.0
41
0.0
42
-0.0394540874249322
10
79.304157127562
20
-88.8046607000922
40
0.0
41
0.0
42
0.0326638459533189
10
84.0
20
-88.0
40
0.0
41
0.0
42
0.0
10
84.0
20
-86.0
40
0.0
41
0.0
42
0.0
10
78.4938969526595
20
-86.0
40
0.0
41
0.0
42
-0.0571480308288162
10
78.4938969526595
20
-84.0
40
0.0
41
0.0
42
0.0
10
84.0
20
-84.0
40
0.0
41
0.0
42
0.0
10
84.0
20
-82.0
40
0.0
41
0.0
42
0.0326638459533189
210
0.0
220
0.0
230
1.0
0
LWPOLYLINE
5
F6
102
{ACAD_REACTORS
330
FA
102
}
330
1B
100
AcDbEntity
67
0
8
layer 28
62
4
6
ByLayer
370
13
48
1.0
60
0
100
AcDbPolyline
90
4
70
1
38
0.0
39
0.0
10
79.0904419541548
20
-81.6760512774351
40
0.0
41
0.0
42
0.0542125595502831
10
78.5658630009862
20
-83.5
40
0.0
41
0.0
42
0.0
10
83.5
20
-83.5
40
0.0
41
0.0
42
0.0
10
83.5
20
-82.3966301403539
40
0.0
41
0.0
42
0.0310550679208531
210
0.0
220
0.0
230
1.0
0
LWPOLYLINE
5
F7
102
{ACAD_REACTORS
330
FA
102
}
330
1B
100
AcDbEntity
67
0
8
layer 28
62
4
6
ByLayer
370
13
48
1.0
60
0
100
AcDbPolyline
90
4
70
1
38
0.0
39
0.0
10
78.5658630009862
20
-86.5
40
0.0
41
0.0
42
0.0542125595502831
10
79.0904419541548
20
-88.3239487225649
40
0.0
41
0.0
42
0.0310550679208533
10
83.5
20
-87.6033698596461
40
0.0
41
0.0
42
0.0
10
83.5
20
-86.5
40
0.0
41
0.0
42
0.0
210
0.0
220
0.0
230
1.0
0
LWPOLYLINE
5
F8
102
{ACAD_REACTORS
330
FA
102
}
330
1B
100
AcDbEntity
67
0
8
layer 28
62
4
6
ByLayer
370
13
48
1.0
60
0
100
AcDbPolyline
90
4
70
1
38
0.0
39
0.0
10
70.0
20
-84.0
40
0.0
41
0.0
42
0.0
10
70.0
20
-86.0
40
0.0
41
0.0
42
0.0
10
69.0
20
-86.0
40
0.0
41
0.0
42
0.0
10
69.0
20
-84.0
40
0.0
41
0.0
42
0.0
210
0.0
220
0.0
230
1.0
0
LWPOLYLINE
5
F9
102
{ACAD_REACTORS
330
FA
102
}
330
1B
100
AcDbEntity
67
0
8
layer 28
62
4
6
ByLayer
370
13
48
1.0
60
0
100
AcDbPolyline
90
8
70
1
38
0.0
39
0.0
10
70.0
20
-81.9191543734116
40
0.0
41
0.0
42
0.0
10
70.0
20
-83.5
40
0.0
41
0.0
42
0.0
10
68.5
20
-83.5
40
0.0
41
0.0
42
0.0
10
68.5
20
-86.5
40
0.0
41
0.0
42
0.0
10
70.0
20
-86.5
40
0.0
41
0.0
42
0.0
10
70.0
20
-88.0808456265884
40
0.0
41
0.0
42
-0.01767876064241
10
67.5
20
-87.6033698596461
40
0.0
41
0.0
42
0.0
10
67.5
20
-82.3966301403539
40
0.0
41
0.0
42
-0.0176787606424096
210
0.0
220
0.0
230
1.0
0
LWPOLYLINE
5
FC
330
1B
100
AcDbEntity
67
0
8
layer 29
62
3
6
ByLayer
370
-1
48
1.0
60
0
100
AcDbPolyline
90
4
70
1
38
0.0
39
0.0
10
21.0
20
-110.0
40
0.0
41
0.0
42
0.0
10
31.0
20
-110.0
40
0.0
41
0.0
42
0.0
10
31.0
20
-100.0
40
0.0
41
0.0
42
0.0
10
21.0
20
-100.0
40
0.0
41
0.0
42
0.0
210
0.0
220
0.0
230
1.0
0
LWPOLYLINE
5
FE
330
1B
100
AcDbEntity
67
0
8
layer 29
62
3
6
ByLayer
370
-1
48
1.0
60
0
100
AcDbPolyline
90
4
70
1
38
0.0
39
0.0
10
21.5
20
-109.5
40
0.0
41
0.0
42
0.0
10
30.5
20
-109.5
40
0.0
41
0.0
42
0.0
10
30.5
20
-100.5
40
0.0
41
0.0
42
0.0
10
21.5
20
-100.5
40
0.0
41
0.0
42
0.0
210
0.0
220
0.0
230
1.0
0
LWPOLYLINE
5
FF
330
1B
100
AcDbEntity
67
0
8
layer 29
62
2
6
ByLayer
370
-1
48
1.0
60
0
100
AcDbPolyline
90
4
70
1
38
0.0
39
0.0
10
10.0
20
-110.0
40
0.0
41
0.0
42
0.0
10
20.0
20
-110.0
40
0.0
41
0.0
42
0.0
10
20.0
20
-100.0
40
0.0
41
0.0
42
0.0
10
10.0
20
-100.0
40
0.0
41
0.0
42
0.0
210
0.0
220
0.0
230
1.0
0
LWPOLYLINE
5
100
330
1B
100
AcDbEntity
67
0
8
layer 29
62
2
6
ByLayer
370
-1
48
1.0
60
0
100
AcDbPolyline
90
4
70
1
38
0.0
39
0.0
10
10.5
20
-109.5
40
0.0
41
0.0
42
0.0
10
19.5
20
-109.5
40
0.0
41
0.0
42
0.0
10
19.5
20
-100.5
40
0.0
41
0.0
42
0.0
10
10.5
20
-100.5
40
0.0
41
0.0
42
0.0
210
0.0
220
0.0
230
1.0
0
HATCH
5
103
330
1B
100
AcDbEntity
67
0
8
layer 29
62
4
6
ByLayer
370
0
48
1.0
60
0
100
AcDbHatch
10
0.0
20
0.0
30
0.0
210
0.0
220
0.0
230
1.0
2
LINE
70
0
71
1
91
2
92
7
72
1
73
1
93
4
10
10.0
20
-110.0
42
0.0
10
20.0
20
-110.0
42
0.0
10
20.0
20
-100.0
42
0.0
10
10.0
20
-100.0
42
0.0
97
1
330
101
92
7
72
1
73
1
93
4
10
10.5
20
-109.5
42
0.0
10
19.5
20
-109.5
42
0.0
10
19.5
20
-100.5
42
0.0
10
10.5
20
-100.5
42
0.0
97
1
330
102
75
0
76
0
52
45.0
41
0.5
77
0
78
0
47
0.0
98
1
10
0.0
20
0.0
1001
ACAD
1010
0.0
1020
0.0
1030
0.0
0
LWPOLYLINE
5
101
102
{ACAD_REACTORS
330
103
102
}
330
1B
100
AcDbEntity
67
0
8
layer 29
62
4
6
ByLayer
370
13
48
1.0
60
0
100
AcDbPolyline
90
4
70
1
38
0.0
39
0.0
10
10.0
20
-110.0
40
0.0
41
0.0
42
0.0
10
20.0
20
-110.0
40
0.0
41
0.0
42
0.0
10
20.0
20
-100.0
40
0.0
41
0.0
42
0.0
10
10.0
20
-100.0
40
0.0
41
0.0
42
0.0
210
0.0
220
0.0
230
1.0
0
LWPOLYLINE
5
102
102
{ACAD_REACTORS
330
103
102
}
330
1B
100
AcDbEntity
67
0
8
layer 29
62
4
6
ByLayer
370
13
48
1.0
60
0
100
AcDbPolyline
90
4
70
1
38
0.0
39
0.0
10
10.5
20
-109.5
40
0.0
41
0.0
42
0.0
10
19.5
20
-109.5
40
0.0
41
0.0
42
0.0
10
19.5
20
-100.5
40
0.0
41
0.0
42
0.0
10
10.5
20
-100.5
40
0.0
41
0.0
42
0.0
210
0.0
220
0.0
230
1.0
0
HATCH
5
106
330
1B
100
AcDbEntity
67
0
8
layer 29
62
4
6
ByLayer
370
0
48
1.0
60
0
100
AcDbHatch
10
0.0
20
0.0
30
0.0
210
0.0
220
0.0
230
1.0
2
LINE
70
0
71
1
91
2
92
7
72
1
73
1
93
4
10
21.0
20
-110.0
42
0.0
10
31.0
20
-110.0
42
0.0
10
31.0
20
-100.0
42
0.0
10
21.0
20
-100.0
42
0.0
97
1
330
104
92
7
72
1
73
1
93
4
10
21.5
20
-109.5
42
0.0
10
30.5
20
-109.5
42
0.0
10
30.5
20
-100.5
42
0.0
10
21.5
20
-100.5
42
0.0
97
1
330
105
75
0
76
0
52
45.0
41
0.5
77
0
78
0
47
0.0
98
1
10
0.0
20
0.0
1001
ACAD
1010
0.0
1020
0.0
1030
0.0
0
LWPOLYLINE
5
104
102
{ACAD_REACTORS
330
106
102
}
330
1B
100
AcDbEntity
67
0
8
layer 29
62
4
6
ByLayer
370
13
48
1.0
60
0
100
AcDbPolyline
90
4
70
1
38
0.0
39
0.0
10
21.0
20
-110.0
40
0.0
41
0.0
42
0.0
10
31.0
20
-110.0
40
0.0
41
0.0
42
0.0
10
31.0
20
-100.0
40
0.0
41
0.0
42
0.0
10
21.0
20
-100.0
40
0.0
41
0.0
42
0.0
210
0.0
220
0.0
230
1.0
0
LWPOLYLINE
5
105
102
{ACAD_REACTORS
330
106
102
}
330
1B
100
AcDbEntity
67
0
8
layer 29
62
4
6
ByLayer
370
13
48
1.0
60
0
100
AcDbPolyline
90
4
70
1
38
0.0
39
0.0
10
21.5
20
-109.5
40
0.0
41
0.0
42
0.0
10
30.5
20
-109.5
40
0.0
41
0.0
42
0.0
10
30.5
20
-100.5
40
0.0
41
0.0
42
0.0
10
21.5
20
-100.5
40
0.0
41
0.0
42
0.0
210
0.0
220
0.0
230
1.0
0
LWPOLYLINE
5
108
330
1B
100
AcDbEntity
67
0
8
layer 30
62
3
6
ByLayer
370
-1
48
1.0
60
0
100
AcDbPolyline
90
4
70
1
38
0.0
39
0.0
10
50.0
20
-110.0
40
0.0
41
0.0
42
0.0
10
60.0
20
-110.0
40
0.0
41
0.0
42
0.0
10
60.0
20
-100.0
40
0.0
41
0.0
42
0.0
10
50.0
20
-100.0
40
0.0
41
0.0
42
0.0
210
0.0
220
0.0
230
1.0
0
LWPOLYLINE
5
10A
330
1B
100
AcDbEntity
67
0
8
layer 30
62
3
6
ByLayer
370
-1
48
1.0
60
0
100
AcDbPolyline
90
4
70
1
38
0.0
39
0.0
10
50.5
20
-109.5
40
0.0
41
0.0
42
0.0
10
59.5
20
-109.5
40
0.0
41
0.0
42
0.0
10
59.5
20
-100.5
40
0.0
41
0.0
42
0.0
10
50.5
20
-100.5
40
0.0
41
0.0
42
0.0
210
0.0
220
0.0
230
1.0
0
LWPOLYLINE
5
10B
330
1B
100
AcDbEntity
67
0
8
layer 30
62
2
6
ByLayer
370
-1
48
1.0
60
0
100
AcDbPolyline
90
4
70
1
38
0.0
39
0.0
10
40.0
20
-110.0
40
0.0
41
0.0
42
0.0
10
50.0
20
-110.0
40
0.0
41
0.0
42
0.0
10
50.0
20
-100.0
40
0.0
41
0.0
42
0.0
10
40.0
20
-100.0
40
0.0
41
0.0
42
0.0
210
0.0
220
0.0
230
1.0
0
LWPOLYLINE
5
10C
330
1B
100
AcDbEntity
67
0
8
layer 30
62
2
6
ByLayer
370
-1
48
1.0
60
0
100
AcDbPolyline
90
4
70
1
38
0.0
39
0.0
10
40.5
20
-109.5
40
0.0
41
0.0
42
0.0
10
49.5
20
-109.5
40
0.0
41
0.0
42
0.0
10
49.5
20
-100.5
40
0.0
41
0.0
42
0.0
10
40.5
20
-100.5
40
0.0
41
0.0
42
0.0
210
0.0
220
0.0
230
1.0
0
HATCH
5
110
330
1B
100
AcDbEntity
67
0
8
layer 30
62
4
6
ByLayer
370
0
48
1.0
60
0
100
AcDbHatch
10
0.0
20
0.0
30
0.0
210
0.0
220
0.0
230
1.0
2
LINE
70
0
71
1
91
3
92
7
72
1
73
1
93
6
10
40.0
20
-110.0
42
0.0
10
50.0
20
-110.0
42
0.0
10
60.0
20
-110.0
42
0.0
10
60.0
20
-100.0
42
0.0
10
50.0
20
-100.0
42
0.0
10
40.0
20
-100.0
42
0.0
97
1
330
10D
92
7
72
1
73
1
93
4
10
40.5
20
-109.5
42
0.0
10
49.5
20
-109.5
42
0.0
10
49.5
20
-100.5
42
0.0
10
40.5
20
-100.5
42
0.0
97
1
330
10E
92
7
72
1
73
1
93
4
10
50.5
20
-109.5
42
0.0
10
59.5
20
-109.5
42
0.0
10
59.5
20
-100.5
42
0.0
10
50.5
20
-100.5
42
0.0
97
1
330
10F
75
0
76
0
52
45.0
41
0.5
77
0
78
0
47
0.0
98
1
10
0.0
20
0.0
1001
ACAD
1010
0.0
1020
0.0
1030
0.0
0
LWPOLYLINE
5
10D
102
{ACAD_REACTORS
330
110
102
}
330
1B
100
AcDbEntity
67
0
8
layer 30
62
4
6
ByLayer
370
13
48
1.0
60
0
100
AcDbPolyline
90
6
70
1
38
0.0
39
0.0
10
40.0
20
-110.0
40
0.0
41
0.0
42
0.0
10
50.0
20
-110.0
40
0.0
41
0.0
42
0.0
10
60.0
20
-110.0
40
0.0
41
0.0
42
0.0
10
60.0
20
-100.0
40
0.0
41
0.0
42
0.0
10
50.0
20
-100.0
40
0.0
41
0.0
42
0.0
10
40.0
20
-100.0
40
0.0
41
0.0
42
0.0
210
0.0
220
0.0
230
1.0
0
LWPOLYLINE
5
10E
102
{ACAD_REACTORS
330
110
102
}
330
1B
100
AcDbEntity
67
0
8
layer 30
62
4
6
ByLayer
370
13
48
1.0
60
0
100
AcDbPolyline
90
4
70
1
38
0.0
39
0.0
10
40.5
20
-109.5
40
0.0
41
0.0
42
0.0
10
49.5
20
-109.5
40
0.0
41
0.0
42
0.0
10
49.5
20
-100.5
40
0.0
41
0.0
42
0.0
10
40.5
20
-100.5
40
0.0
41
0.0
42
0.0
210
0.0
220
0.0
230
1.0
0
LWPOLYLINE
5
10F
102
{ACAD_REACTORS
330
110
102
}
330
1B
100
AcDbEntity
67
0
8
layer 30
62
4
6
ByLayer
370
13
48
1.0
60
0
100
AcDbPolyline
90
4
70
1
38
0.0
39
0.0
10
50.5
20
-109.5
40
0.0
41
0.0
42
0.0
10
59.5
20
-109.5
40
0.0
41
0.0
42
0.0
10
59.5
20
-100.5
40
0.0
41
0.0
42
0.0
10
50.5
20
-100.5
40
0.0
41
0.0
42
0.0
210
0.0
220
0.0
230
1.0
0
LWPOLYLINE
5
112
330
1B
100
AcDbEntity
67
0
8
layer 31
62
3
6
ByLayer
370
-1
48
1.0
60
0
100
AcDbPolyline
90
4
70
1
38
0.0
39
0.0
10
70.0
20
-110.0
40
0.0
41
0.0
42
0.0
10
80.0
20
-110.0
40
0.0
41
0.0
42
0.0
10
80.0
20
-100.0
40
0.0
41
0.0
42
0.0
10
70.0
20
-100.0
40
0.0
41
0.0
42
0.0
210
0.0
220
0.0
230
1.0
0
LWPOLYLINE
5
114
330
1B
100
AcDbEntity
67
0
8
layer 31
62
3
6
ByLayer
370
-1
48
1.0
60
0
100
AcDbPolyline
90
4
70
1
38
0.0
39
0.0
10
70.5
20
-109.5
40
0.0
41
0.0
42
0.0
10
79.5
20
-109.5
40
0.0
41
0.0
42
0.0
10
79.5
20
-100.5
40
0.0
41
0.0
42
0.0
10
70.5
20
-100.5
40
0.0
41
0.0
42
0.0
210
0.0
220
0.0
230
1.0
0
LWPOLYLINE
5
115
330
1B
100
AcDbEntity
67
0
8
layer 31
62
2
6
ByLayer
370
-1
48
1.0
60
0
100
AcDbPolyline
90
4
70
1
38
0.0
39
0.0
10
70.0
20
-110.0
40
0.0
41
0.0
42
0.0
10
80.0
20
-110.0
40
0.0
41
0.0
42
0.0
10
80.0
20
-100.0
40
0.0
41
0.0
42
0.0
10
70.0
20
-100.0
40
0.0
41
0.0
42
0.0
210
0.0
220
0.0
230
1.0
0
LWPOLYLINE
5
116
330
1B
100
AcDbEntity
67
0
8
layer 31
62
2
6
ByLayer
370
-1
48
1.0
60
0
100
AcDbPolyline
90
4
70
1
38
0.0
39
0.0
10
70.5
20
-109.5
40
0.0
41
0.0
42
0.0
10
79.5
20
-109.5
40
0.0
41
0.0
42
0.0
10
79.5
20
-100.5
40
0.0
41
0.0
42
0.0
10
70.5
20
-100.5
40
0.0
41
0.0
42
0.0
210
0.0
220
0.0
230
1.0
0
HATCH
5
119
330
1B
100
AcDbEntity
67
0
8
layer 31
62
4
6
ByLayer
370
0
48
1.0
60
0
100
AcDbHatch
10
0.0
20
0.0
30
0.0
210
0.0
220
0.0
230
1.0
2
LINE
70
0
71
1
91
2
92
7
72
1
73
1
93
4
10
70.0
20
-110.0
42
0.0
10
80.0
20
-110.0
42
0.0
10
80.0
20
-100.0
42
0.0
10
70.0
20
-100.0
42
0.0
97
1
330
117
92
7
72
1
73
1
93
4
10
70.5
20
-109.5
42
0.0
10
79.5
20
-109.5
42
0.0
10
79.5
20
-100.5
42
0.0
10
70.5
20
-100.5
42
0.0
97
1
330
118
75
0
76
0
52
45.0
41
0.5
77
0
78
0
47
0.0
98
1
10
0.0
20
0.0
1001
ACAD
1010
0.0
1020
0.0
1030
0.0
0
LWPOLYLINE
5
117
102
{ACAD_REACTORS
330
119
102
}
330
1B
100
AcDbEntity
67
0
8
layer 31
62
4
6
ByLayer
370
13
48
1.0
60
0
100
AcDbPolyline
90
4
70
1
38
0.0
39
0.0
10
70.0
20
-110.0
40
0.0
41
0.0
42
0.0
10
80.0
20
-110.0
40
0.0
41
0.0
42
0.0
10
80.0
20
-100.0
40
0.0
41
0.0
42
0.0
10
70.0
20
-100.0
40
0.0
41
0.0
42
0.0
210
0.0
220
0.0
230
1.0
0
LWPOLYLINE
5
118
102
{ACAD_REACTORS
330
119
102
}
330
1B
100
AcDbEntity
67
0
8
layer 31
62
4
6
ByLayer
370
13
48
1.0
60
0
100
AcDbPolyline
90
4
70
1
38
0.0
39
0.0
10
70.5
20
-109.5
40
0.0
41
0.0
42
0.0
10
79.5
20
-109.5
40
0.0
41
0.0
42
0.0
10
79.5
20
-100.5
40
0.0
41
0.0
42
0.0
10
70.5
20
-100.5
40
0.0
41
0.0
42
0.0
210
0.0
220
0.0
230
1.0
0
LWPOLYLINE
5
11B
330
1B
100
AcDbEntity
67
0
8
layer 32
62
3
6
ByLayer
370
-1
48
1.0
60
0
100
AcDbPolyline
90
4
70
1
38
0.0
39
0.0
10
92.0
20
-108.0
40
0.0
41
0.0
42
0.0
10
98.0
20
-108.0
40
0.0
41
0.0
42
0.0
10
98.0
20
-102.0
40
0.0
41
0.0
42
0.0
10
92.0
20
-102.0
40
0.0
41
0.0
42
0.0
210
0.0
220
0.0
230
1.0
0
LWPOLYLINE
5
11D
330
1B
100
AcDbEntity
67
0
8
layer 32
62
3
6
ByLayer
370
-1
48
1.0
60
0
100
AcDbPolyline
90
4
70
1
38
0.0
39
0.0
10
92.5
20
-107.5
40
0.0
41
0.0
42
0.0
10
97.5
20
-107.5
40
0.0
41
0.0
42
0.0
10
97.5
20
-102.5
40
0.0
41
0.0
42
0.0
10
92.5
20
-102.5
40
0.0
41
0.0
42
0.0
210
0.0
220
0.0
230
1.0
0
LWPOLYLINE
5
11E
330
1B
100
AcDbEntity
67
0
8
layer 32
62
2
6
ByLayer
370
-1
48
1.0
60
0
100
AcDbPolyline
90
4
70
1
38
0.0
39
0.0
10
90.0
20
-110.0
40
0.0
41
0.0
42
0.0
10
100.0
20
-110.0
40
0.0
41
0.0
42
0.0
10
100.0
20
-100.0
40
0.0
41
0.0
42
0.0
10
90.0
20
-100.0
40
0.0
41
0.0
42
0.0
210
0.0
220
0.0
230
1.0
0
LWPOLYLINE
5
11F
330
1B
100
AcDbEntity
67
0
8
layer 32
62
2
6
ByLayer
370
-1
48
1.0
60
0
100
AcDbPolyline
90
4
70
1
38
0.0
39
0.0
10
90.5
20
-109.5
40
0.0
41
0.0
42
0.0
10
99.5
20
-109.5
40
0.0
41
0.0
42
0.0
10
99.5
20
-100.5
40
0.0
41
0.0
42
0.0
10
90.5
20
-100.5
40
0.0
41
0.0
42
0.0
210
0.0
220
0.0
230
1.0
0
HATCH
5
122
330
1B
100
AcDbEntity
67
0
8
layer 32
62
4
6
ByLayer
370
0
48
1.0
60
0
100
AcDbHatch
10
0.0
20
0.0
30
0.0
210
0.0
220
0.0
230
1.0
2
LINE
70
0
71
1
91
2
92
7
72
1
73
1
93
4
10
90.0
20
-110.0
42
0.0
10
100.0
20
-110.0
42
0.0
10
100.0
20
-100.0
42
0.0
10
90.0
20
-100.0
42
0.0
97
1
330
120
92
7
72
1
73
1
93
4
10
90.5
20
-109.5
42
0.0
10
99.5
20
-109.5
42
0.0
10
99.5
20
-100.5
42
0.0
10
90.5
20
-100.5
42
0.0
97
1
330
121
75
0
76
0
52
45.0
41
0.5
77
0
78
0
47
0.0
98
1
10
0.0
20
0.0
1001
ACAD
1010
0.0
1020
0.0
1030
0.0
0
LWPOLYLINE
5
120
102
{ACAD_REACTORS
330
122
102
}
330
1B
100
AcDbEntity
67
0
8
layer 32
62
4
6
ByLayer
370
13
48
1.0
60
0
100
AcDbPolyline
90
4
70
1
38
0.0
39
0.0
10
90.0
20
-110.0
40
0.0
41
0.0
42
0.0
10
100.0
20
-110.0
40
0.0
41
0.0
42
0.0
10
100.0
20
-100.0
40
0.0
41
0.0
42
0.0
10
90.0
20
-100.0
40
0.0
41
0.0
42
0.0
210
0.0
220
0.0
230
1.0
0
LWPOLYLINE
5
121
102
{ACAD_REACTORS
330
122
102
}
330
1B
100
AcDbEntity
67
0
8
layer 32
62
4
6
ByLayer
370
13
48
1.0
60
0
100
AcDbPolyline
90
4
70
1
38
0.0
39
0.0
10
90.5
20
-109.5
40
0.0
41
0.0
42
0.0
10
99.5
20
-109.5
40
0.0
41
0.0
42
0.0
10
99.5
20
-100.5
40
0.0
41
0.0
42
0.0
10
90.5
20
-100.5
40
0.0
41
0.0
42
0.0
210
0.0
220
0.0
230
1.0
0
HATCH
5
125
330
1B
100
AcDbEntity
67
0
8
layer 32
62
4
6
ByLayer
370
0
48
1.0
60
0
100
AcDbHatch
10
0.0
20
0.0
30
0.0
210
0.0
220
0.0
230
1.0
2
LINE
70
0
71
1
91
2
92
7
72
1
73
1
93
4
10
92.0
20
-108.0
42
0.0
10
98.0
20
-108.0
42
0.0
10
98.0
20
-102.0
42
0.0
10
92.0
20
-102.0
42
0.0
97
1
330
123
92
7
72
1
73
1
93
4
10
92.5
20
-107.5
42
0.0
10
97.5
20
-107.5
42
0.0
10
97.5
20
-102.5
42
0.0
10
92.5
20
-102.5
42
0.0
97
1
330
124
75
0
76
0
52
45.0
41
0.5
77
0
78
0
47
0.0
98
1
10
0.0
20
0.0
1001
ACAD
1010
0.0
1020
0.0
1030
0.0
0
LWPOLYLINE
5
123
102
{ACAD_REACTORS
330
125
102
}
330
1B
100
AcDbEntity
67
0
8
layer 32
62
4
6
ByLayer
370
13
48
1.0
60
0
100
AcDbPolyline
90
4
70
1
38
0.0
39
0.0
10
92.0
20
-108.0
40
0.0
41
0.0
42
0.0
10
98.0
20
-108.0
40
0.0
41
0.0
42
0.0
10
98.0
20
-102.0
40
0.0
41
0.0
42
0.0
10
92.0
20
-102.0
40
0.0
41
0.0
42
0.0
210
0.0
220
0.0
230
1.0
0
LWPOLYLINE
5
124
102
{ACAD_REACTORS
330
125
102
}
330
1B
100
AcDbEntity
67
0
8
layer 32
62
4
6
ByLayer
370
13
48
1.0
60
0
100
AcDbPolyline
90
4
70
1
38
0.0
39
0.0
10
92.5
20
-107.5
40
0.0
41
0.0
42
0.0
10
97.5
20
-107.5
40
0.0
41
0.0
42
0.0
10
97.5
20
-102.5
40
0.0
41
0.0
42
0.0
10
92.5
20
-102.5
40
0.0
41
0.0
42
0.0
210
0.0
220
0.0
230
1.0
0
LWPOLYLINE
5
127
330
1B
100
AcDbEntity
67
0
8
layer 33
62
3
6
ByLayer
370
-1
48
1.0
60
0
100
AcDbPolyline
90
4
70
1
38
0.0
39
0.0
10
18.0
20
-130.0
40
0.0
41
0.0
42
0.0
10
28.0
20
-130.0
40
0.0
41
0.0
42
0.0
10
28.0
20
-120.0
40
0.0
41
0.0
42
0.0
10
18.0
20
-120.0
40
0.0
41
0.0
42
0.0
210
0.0
220
0.0
230
1.0
0
LWPOLYLINE
5
129
330
1B
100
AcDbEntity
67
0
8
layer 33
62
3
6
ByLayer
370
-1
48
1.0
60
0
100
AcDbPolyline
90
4
70
1
38
0.0
39
0.0
10
18.5
20
-129.5
40
0.0
41
0.0
42
0.0
10
27.5
20
-129.5
40
0.0
41
0.0
42
0.0
10
27.5
20
-120.5
40
0.0
41
0.0
42
0.0
10
18.5
20
-120.5
40
0.0
41
0.0
42
0.0
210
0.0
220
0.0
230
1.0
0
LWPOLYLINE
5
12A
330
1B
100
AcDbEntity
67
0
8
layer 33
62
2
6
ByLayer
370
-1
48
1.0
60
0
100
AcDbPolyline
90
4
70
1
38
0.0
39
0.0
10
10.0
20
-130.0
40
0.0
41
0.0
42
0.0
10
20.0
20
-130.0
40
0.0
41
0.0
42
0.0
10
20.0
20
-120.0
40
0.0
41
0.0
42
0.0
10
10.0
20
-120.0
40
0.0
41
0.0
42
0.0
210
0.0
220
0.0
230
1.0
0
LWPOLYLINE
5
12B
330
1B
100
AcDbEntity
67
0
8
layer 33
62
2
6
ByLayer
370
-1
48
1.0
60
0
100
AcDbPolyline
90
4
70
1
38
0.0
39
0.0
10
10.5
20
-129.5
40
0.0
41
0.0
42
0.0
10
19.5
20
-129.5
40
0.0
41
0.0
42
0.0
10
19.5
20
-120.5
40
0.0
41
0.0
42
0.0
10
10.5
20
-120.5
40
0.0
41
0.0
42
0.0
210
0.0
220
0.0
230
1.0
0
HATCH
5
130
330
1B
100
AcDbEntity
67
0
8
layer 33
62
4
6
ByLayer
370
0
48
1.0
60
0
100
AcDbHatch
10
0.0
20
0.0
30
0.0
210
0.0
220
0.0
230
1.0
2
LINE
70
0
71
1
91
4
92
7
72
1
73
1
93
8
10
18.0
20
-130.0
42
0.0
10
10.0
20
-130.0
42
0.0
10
10.0
20
-120.0
42
0.0
10
18.0
20
-120.0
42
0.0
10
20.0
20
-120.0
42
0.0
10
28.0
20
-120.0
42
0.0
10
28.0
20
-130.0
42
0.0
10
20.0
20
-130.0
42
0.0
97
1
330
12C
92
7
72
1
73
1
93
4
10
20.0
20
-129.5
42
0.0
10
20.0
20
-120.5
42
0.0
10
27.5
20
-120.5
42
0.0
10
27.5
20
-129.5
42
0.0
97
1
330
12D
92
7
72
1
73
1
93
4
10
18.0
20
-129.5
42
0.0
10
10.5
20
-129.5
42
0.0
10
10.5
20
-120.5
42
0.0
10
18.0
20
-120.5
42
0.0
97
1
330
12E
92
7
72
1
73
1
93
4
10
18.5
20
-129.5
42
0.0
10
18.5
20
-120.5
42
0.0
10
19.5
20
-120.5
42
0.0
10
19.5
20
-129.5
42
0.0
97
1
330
12F
75
0
76
0
52
45.0
41
0.5
77
0
78
0
47
0.0
98
1
10
0.0
20
0.0
1001
ACAD
1010
0.0
1020
0.0
1030
0.0
0
LWPOLYLINE
5
12C
102
{ACAD_REACTORS
330
130
102
}
330
1B
100
AcDbEntity
67
0
8
layer 33
62
4
6
ByLayer
370
13
48
1.0
60
0
100
AcDbPolyline
90
8
70
1
38
0.0
39
0.0
10
18.0
20
-130.0
40
0.0
41
0.0
42
0.0
10
10.0
20
-130.0
40
0.0
41
0.0
42
0.0
10
10.0
20
-120.0
40
0.0
41
0.0
42
0.0
10
18.0
20
-120.0
40
0.0
41
0.0
42
0.0
10
20.0
20
-120.0
40
0.0
41
0.0
42
0.0
10
28.0
20
-120.0
40
0.0
41
0.0
42
0.0
10
28.0
20
-130.0
40
0.0
41
0.0
42
0.0
10
20.0
20
-130.0
40
0.0
41
0.0
42
0.0
210
0.0
220
0.0
230
1.0
0
LWPOLYLINE
5
12D
102
{ACAD_REACTORS
330
130
102
}
330
1B
100
AcDbEntity
67
0
8
layer 33
62
4
6
ByLayer
370
13
48
1.0
60
0
100
AcDbPolyline
90
4
70
1
38
0.0
39
0.0
10
20.0
20
-129.5
40
0.0
41
0.0
42
0.0
10
20.0
20
-120.5
40
0.0
41
0.0
42
0.0
10
27.5
20
-120.5
40
0.0
41
0.0
42
0.0
10
27.5
20
-129.5
40
0.0
41
0.0
42
0.0
210
0.0
220
0.0
230
1.0
0
LWPOLYLINE
5
12E
102
{ACAD_REACTORS
330
130
102
}
330
1B
100
AcDbEntity
67
0
8
layer 33
62
4
6
ByLayer
370
13
48
1.0
60
0
100
AcDbPolyline
90
4
70
1
38
0.0
39
0.0
10
18.0
20
-129.5
40
0.0
41
0.0
42
0.0
10
10.5
20
-129.5
40
0.0
41
0.0
42
0.0
10
10.5
20
-120.5
40
0.0
41
0.0
42
0.0
10
18.0
20
-120.5
40
0.0
41
0.0
42
0.0
210
0.0
220
0.0
230
1.0
0
LWPOLYLINE
5
12F
102
{ACAD_REACTORS
330
130
102
}
330
1B
100
AcDbEntity
67
0
8
layer 33
62
4
6
ByLayer
370
13
48
1.0
60
0
100
AcDbPolyline
90
4
70
1
38
0.0
39
0.0
10
18.5
20
-129.5
40
0.0
41
0.0
42
0.0
10
18.5
20
-120.5
40
0.0
41
0.0
42
0.0
10
19.5
20
-120.5
40
0.0
41
0.0
42
0.0
10
19.5
20
-129.5
40
0.0
41
0.0
42
0.0
210
0.0
220
0.0
230
1.0
0
LWPOLYLINE
5
132
330
1B
100
AcDbEntity
67
0
8
layer 34
62
3
6
ByLayer
370
-1
48
1.0
60
0
100
AcDbPolyline
90
4
70
1
38
0.0
39
0.0
10
48.0
20
-132.0
40
0.0
41
0.0
42
0.0
10
58.0
20
-132.0
40
0.0
41
0.0
42
0.0
10
58.0
20
-122.0
40
0.0
41
0.0
42
0.0
10
48.0
20
-122.0
40
0.0
41
0.0
42
0.0
210
0.0
220
0.0
230
1.0
0
LWPOLYLINE
5
134
330
1B
100
AcDbEntity
67
0
8
layer 34
62
3
6
ByLayer
370
-1
48
1.0
60
0
100
AcDbPolyline
90
4
70
1
38
0.0
39
0.0
10
48.5
20
-131.5
40
0.0
41
0.0
42
0.0
10
57.5
20
-131.5
40
0.0
41
0.0
42
0.0
10
57.5
20
-122.5
40
0.0
41
0.0
42
0.0
10
48.5
20
-122.5
40
0.0
41
0.0
42
0.0
210
0.0
220
0.0
230
1.0
0
LWPOLYLINE
5
135
330
1B
100
AcDbEntity
67
0
8
layer 34
62
2
6
ByLayer
370
-1
48
1.0
60
0
100
AcDbPolyline
90
4
70
1
38
0.0
39
0.0
10
40.0
20
-130.0
40
0.0
41
0.0
42
0.0
10
50.0
20
-130.0
40
0.0
41
0.0
42
0.0
10
50.0
20
-120.0
40
0.0
41
0.0
42
0.0
10
40.0
20
-120.0
40
0.0
41
0.0
42
0.0
210
0.0
220
0.0
230
1.0
0
LWPOLYLINE
5
136
330
1B
100
AcDbEntity
67
0
8
layer 34
62
2
6
ByLayer
370
-1
48
1.0
60
0
100
AcDbPolyline
90
4
70
1
38
0.0
39
0.0
10
40.5
20
-129.5
40
0.0
41
0.0
42
0.0
10
49.5
20
-129.5
40
0.0
41
0.0
42
0.0
10
49.5
20
-120.5
40
0.0
41
0.0
42
0.0
10
40.5
20
-120.5
40
0.0
41
0.0
42
0.0
210
0.0
220
0.0
230
1.0
0
HATCH
5
13B
330
1B
100
AcDbEntity
67
0
8
layer 34
62
4
6
ByLayer
370
0
48
1.0
60
0
100
AcDbHatch
10
0.0
20
0.0
30
0.0
210
0.0
220
0.0
230
1.0
2
LINE
70
0
71
1
91
4
92
7
72
1
73
1
93
8
10
48.0
20
-130.0
42
0.0
10
40.0
20
-130.0
42
0.0
10
40.0
20
-120.0
42
0.0
10
50.0
20
-120.0
42
0.0
10
50.0
20
-122.0
42
0.0
10
58.0
20
-122.0
42
0.0
10
58.0
20
-132.0
42
0.0
10
48.0
20
-132.0
42
0.0
97
1
330
137
92
7
72
1
73
1
93
6
10
48.5
20
-130.0
42
0.0
10
50.0
20
-130.0
42
0.0
10
50.0
20
-122.5
42
0.0
10
57.5
20
-122.5
42
0.0
10
57.5
20
-131.5
42
0.0
10
48.5
20
-131.5
42
0.0
97
1
330
138
92
7
72
1
73
1
93
6
10
48.0
20
-129.5
42
0.0
10
40.5
20
-129.5
42
0.0
10
40.5
20
-120.5
42
0.0
10
49.5
20
-120.5
42
0.0
10
49.5
20
-122.0
42
0.0
10
48.0
20
-122.0
42
0.0
97
1
330
139
92
7
72
1
73
1
93
4
10
48.5
20
-129.5
42
0.0
10
49.5
20
-129.5
42
0.0
10
49.5
20
-122.5
42
0.0
10
48.5
20
-122.5
42
0.0
97
1
330
13A
75
0
76
0
52
45.0
41
0.5
77
0
78
0
47
0.0
98
1
10
0.0
20
0.0
1001
ACAD
1010
0.0
1020
0.0
1030
0.0
0
LWPOLYLINE
5
137
102
{ACAD_REACTORS
330
13B
102
}
330
1B
100
AcDbEntity
67
0
8
layer 34
62
4
6
ByLayer
370
13
48
1.0
60
0
100
AcDbPolyline
90
8
70
1
38
0.0
39
0.0
10
48.0
20
-130.0
40
0.0
41
0.0
42
0.0
10
40.0
20
-130.0
40
0.0
41
0.0
42
0.0
10
40.0
20
-120.0
40
0.0
41
0.0
42
0.0
10
50.0
20
-120.0
40
0.0
41
0.0
42
0.0
10
50.0
20
-122.0
40
0.0
41
0.0
42
0.0
10
58.0
20
-122.0
40
0.0
41
0.0
42
0.0
10
58.0
20
-132.0
40
0.0
41
0.0
42
0.0
10
48.0
20
-132.0
40
0.0
41
0.0
42
0.0
210
0.0
220
0.0
230
1.0
0
LWPOLYLINE
5
138
102
{ACAD_REACTORS
330
13B
102
}
330
1B
100
AcDbEntity
67
0
8
layer 34
62
4
6
ByLayer
370
13
48
1.0
60
0
100
AcDbPolyline
90
6
70
1
38
0.0
39
0.0
10
48.5
20
-130.0
40
0.0
41
0.0
42
0.0
10
50.0
20
-130.0
40
0.0
41
0.0
42
0.0
10
50.0
20
-122.5
40
0.0
41
0.0
42
0.0
10
57.5
20
-122.5
40
0.0
41
0.0
42
0.0
10
57.5
20
-131.5
40
0.0
41
0.0
42
0.0
10
48.5
20
-131.5
40
0.0
41
0.0
42
0.0
210
0.0
220
0.0
230
1.0
0
LWPOLYLINE
5
139
102
{ACAD_REACTORS
330
13B
102
}
330
1B
100
AcDbEntity
67
0
8
layer 34
62
4
6
ByLayer
370
13
48
1.0
60
0
100
AcDbPolyline
90
6
70
1
38
0.0
39
0.0
10
48.0
20
-129.5
40
0.0
41
0.0
42
0.0
10
40.5
20
-129.5
40
0.0
41
0.0
42
0.0
10
40.5
20
-120.5
40
0.0
41
0.0
42
0.0
10
49.5
20
-120.5
40
0.0
41
0.0
42
0.0
10
49.5
20
-122.0
40
0.0
41
0.0
42
0.0
10
48.0
20
-122.0
40
0.0
41
0.0
42
0.0
210
0.0
220
0.0
230
1.0
0
LWPOLYLINE
5
13A
102
{ACAD_REACTORS
330
13B
102
}
330
1B
100
AcDbEntity
67
0
8
layer 34
62
4
6
ByLayer
370
13
48
1.0
60
0
100
AcDbPolyline
90
4
70
1
38
0.0
39
0.0
10
48.5
20
-129.5
40
0.0
41
0.0
42
0.0
10
49.5
20
-129.5
40
0.0
41
0.0
42
0.0
10
49.5
20
-122.5
40
0.0
41
0.0
42
0.0
10
48.5
20
-122.5
40
0.0
41
0.0
42
0.0
210
0.0
220
0.0
230
1.0
0
LWPOLYLINE
5
13D
330
1B
100
AcDbEntity
67
0
8
layer 35
62
3
6
ByLayer
370
-1
48
1.0
60
0
100
AcDbPolyline
90
8
70
1
38
0.0
39
0.0
10
67.0
20
-122.0
40
0.0
41
0.0
42
0.0
10
84.0
20
-122.0
40
0.0
41
0.0
42
0.0
10
84.0
20
-124.0
40
0.0
41
0.0
42
0.0
10
69.0
20
-124.0
40
0.0
41
0.0
42
0.0
10
69.0
20
-126.0
40
0.0
41
0.0
42
0.0
10
84.0
20
-126.0
40
0.0
41
0.0
42
0.0
10
84.0
20
-128.0
40
0.0
41
0.0
42
0.0
10
67.0
20
-128.0
40
0.0
41
0.0
42
0.0
210
0.0
220
0.0
230
1.0
0
LWPOLYLINE
5
13F
330
1B
100
AcDbEntity
67
0
8
layer 35
62
3
6
ByLayer
370
-1
48
1.0
60
0
100
AcDbPolyline
90
8
70
1
38
0.0
39
0.0
10
67.5
20
-122.5
40
0.0
41
0.0
42
0.0
10
83.5
20
-122.5
40
0.0
41
0.0
42
0.0
10
83.5
20
-123.5
40
0.0
41
0.0
42
0.0
10
68.5
20
-123.5
40
0.0
41
0.0
42
0.0
10
68.5
20
-126.5
40
0.0
41
0.0
42
0.0
10
83.5
20
-126.5
40
0.0
41
0.0
42
0.0
10
83.5
20
-127.5
40
0.0
41
0.0
42
0.0
10
67.5
20
-127.5
40
0.0
41
0.0
42
0.0
210
0.0
220
0.0
230
1.0
0
LWPOLYLINE
5
140
330
1B
100
AcDbEntity
67
0
8
layer 35
62
2
6
ByLayer
370
-1
48
1.0
60
0
100
AcDbPolyline
90
4
70
1
38
0.0
39
0.0
10
70.0
20
-130.0
40
0.0
41
0.0
42
0.0
10
80.0
20
-130.0
40
0.0
41
0.0
42
0.0
10
80.0
20
-120.0
40
0.0
41
0.0
42
0.0
10
70.0
20
-120.0
40
0.0
41
0.0
42
0.0
210
0.0
220
0.0
230
1.0
0
LWPOLYLINE
5
141
330
1B
100
AcDbEntity
67
0
8
layer 35
62
2
6
ByLayer
370
-1
48
1.0
60
0
100
AcDbPolyline
90
4
70
1
38
0.0
39
0.0
10
70.5
20
-129.5
40
0.0
41
0.0
42
0.0
10
79.5
20
-129.5
40
0.0
41
0.0
42
0.0
10
79.5
20
-120.5
40
0.0
41
0.0
42
0.0
10
70.5
20
-120.5
40
0.0
41
0.0
42
0.0
210
0.0
220
0.0
230
1.0
0
HATCH
5
14C
330
1B
100
AcDbEntity
67
0
8
layer 35
62
4
6
ByLayer
370
0
48
1.0
60
0
100
AcDbHatch
10
0.0
20
0.0
30
0.0
210
0.0
220
0.0
230
1.0
2
LINE
70
0
71
1
91
10
92
7
72
1
73
1
93
16
10
80.0
20
-122.0
42
0.0
10
80.0
20
-120.0
42
0.0
10
70.0
20
-120.0
42
0.0
10
70.0
20
-122.0
42
0.0
10
67.0
20
-122.0
42
0.0
10
67.0
20
-128.0
42
0.0
10
70.0
20
-128.0
42
0.0
10
70.0
20
-130.0
42
0.0
10
80.0
20
-130.0
42
0.0
10
80.0
20
-128.0
42
0.0
10
84.0
20
-128.0
42
0.0
10
84.0
20
-126.0
42
0.0
10
80.0
20
-126.0
42
0.0
10
80.0
20
-124.0
42
0.0
10
84.0
20
-124.0
42
0.0
10
84.0
20
-122.0
42
0.0
97
1
330
142
92
7
72
1
73
1
93
4
10
80.0
20
-122.5
42
0.0
10
80.0
20
-123.5
42
0.0
10
83.5
20
-123.5
42
0.0
10
83.5
20
-122.5
42
0.0
97
1
330
143
92
7
72
1
73
1
93
4
10
80.0
20
-126.5
42
0.0
10
80.0
20
-127.5
42
0.0
10
83.5
20
-127.5
42
0.0
10
83.5
20
-126.5
42
0.0
97
1
330
144
92
7
72
1
73
1
93
4
10
70.0
20
-124.0
42
0.0
10
70.0
20
-126.0
42
0.0
10
69.0
20
-126.0
42
0.0
10
69.0
20
-124.0
42
0.0
97
1
330
145
92
7
72
1
73
1
93
8
10
70.0
20
-122.5
42
0.0
10
70.0
20
-123.5
42
0.0
10
68.5
20
-123.5
42
0.0
10
68.5
20
-126.5
42
0.0
10
70.0
20
-126.5
42
0.0
10
70.0
20
-127.5
42
0.0
10
67.5
20
-127.5
42
0.0
10
67.5
20
-122.5
42
0.0
97
1
330
146
92
7
72
1
73
1
93
4
10
79.5
20
-122.0
42
0.0
10
79.5
20
-120.5
42
0.0
10
70.5
20
-120.5
42
0.0
10
70.5
20
-122.0
42
0.0
97
1
330
147
92
7
72
1
73
1
93
4
10
79.5
20
-124.0
42
0.0
10
79.5
20
-126.0
42
0.0
10
70.5
20
-126.0
42
0.0
10
70.5
20
-124.0
42
0.0
97
1
330
148
92
7
72
1
73
1
93
4
10
79.5
20
-128.0
42
0.0
10
79.5
20
-129.5
42
0.0
10
70.5
20
-129.5
42
0.0
10
70.5
20
-128.0
42
0.0
97
1
330
149
92
7
72
1
73
1
93
4
10
79.5
20
-122.5
42
0.0
10
79.5
20
-123.5
42
0.0
10
70.5
20
-123.5
42
0.0
10
70.5
20
-122.5
42
0.0
97
1
330
14A
92
7
72
1
73
1
93
4
10
79.5
20
-126.5
42
0.0
10
79.5
20
-127.5
42
0.0
10
70.5
20
-127.5
42
0.0
10
70.5
20
-126.5
42
0.0
97
1
330
14B
75
0
76
0
52
45.0
41
0.5
77
0
78
0
47
0.0
98
1
10
0.0
20
0.0
1001
ACAD
1010
0.0
1020
0.0
1030
0.0
0
LWPOLYLINE
5
142
102
{ACAD_REACTORS
330
14C
102
}
330
1B
100
AcDbEntity
67
0
8
layer 35
62
4
6
ByLayer
370
13
48
1.0
60
0
100
AcDbPolyline
90
16
70
1
38
0.0
39
0.0
10
80.0
20
-122.0
40
0.0
41
0.0
42
0.0
10
80.0
20
-120.0
40
0.0
41
0.0
42
0.0
10
70.0
20
-120.0
40
0.0
41
0.0
42
0.0
10
70.0
20
-122.0
40
0.0
41
0.0
42
0.0
10
67.0
20
-122.0
40
0.0
41
0.0
42
0.0
10
67.0
20
-128.0
40
0.0
41
0.0
42
0.0
10
70.0
20
-128.0
40
0.0
41
0.0
42
0.0
10
70.0
20
-130.0
40
0.0
41
0.0
42
0.0
10
80.0
20
-130.0
40
0.0
41
0.0
42
0.0
10
80.0
20
-128.0
40
0.0
41
0.0
42
0.0
10
84.0
20
-128.0
40
0.0
41
0.0
42
0.0
10
84.0
20
-126.0
40
0.0
41
0.0
42
0.0
10
80.0
20
-126.0
40
0.0
41
0.0
42
0.0
10
80.0
20
-124.0
40
0.0
41
0.0
42
0.0
10
84.0
20
-124.0
40
0.0
41
0.0
42
0.0
10
84.0
20
-122.0
40
0.0
41
0.0
42
0.0
210
0.0
220
0.0
230
1.0
0
LWPOLYLINE
5
143
102
{ACAD_REACTORS
330
14C
102
}
330
1B
100
AcDbEntity
67
0
8
layer 35
62
4
6
ByLayer
370
13
48
1.0
60
0
100
AcDbPolyline
90
4
70
1
38
0.0
39
0.0
10
80.0
20
-122.5
40
0.0
41
0.0
42
0.0
10
80.0
20
-123.5
40
0.0
41
0.0
42
0.0
10
83.5
20
-123.5
40
0.0
41
0.0
42
0.0
10
83.5
20
-122.5
40
0.0
41
0.0
42
0.0
210
0.0
220
0.0
230
1.0
0
LWPOLYLINE
5
144
102
{ACAD_REACTORS
330
14C
102
}
330
1B
100
AcDbEntity
67
0
8
layer 35
62
4
6
ByLayer
370
13
48
1.0
60
0
100
AcDbPolyline
90
4
70
1
38
0.0
39
0.0
10
80.0
20
-126.5
40
0.0
41
0.0
42
0.0
10
80.0
20
-127.5
40
0.0
41
0.0
42
0.0
10
83.5
20
-127.5
40
0.0
41
0.0
42
0.0
10
83.5
20
-126.5
40
0.0
41
0.0
42
0.0
210
0.0
220
0.0
230
1.0
0
LWPOLYLINE
5
145
102
{ACAD_REACTORS
330
14C
102
}
330
1B
100
AcDbEntity
67
0
8
layer 35
62
4
6
ByLayer
370
13
48
1.0
60
0
100
AcDbPolyline
90
4
70
1
38
0.0
39
0.0
10
70.0
20
-124.0
40
0.0
41
0.0
42
0.0
10
70.0
20
-126.0
40
0.0
41
0.0
42
0.0
10
69.0
20
-126.0
40
0.0
41
0.0
42
0.0
10
69.0
20
-124.0
40
0.0
41
0.0
42
0.0
210
0.0
220
0.0
230
1.0
0
LWPOLYLINE
5
146
102
{ACAD_REACTORS
330
14C
102
}
330
1B
100
AcDbEntity
67
0
8
layer 35
62
4
6
ByLayer
370
13
48
1.0
60
0
100
AcDbPolyline
90
8
70
1
38
0.0
39
0.0
10
70.0
20
-122.5
40
0.0
41
0.0
42
0.0
10
70.0
20
-123.5
40
0.0
41
0.0
42
0.0
10
68.5
20
-123.5
40
0.0
41
0.0
42
0.0
10
68.5
20
-126.5
40
0.0
41
0.0
42
0.0
10
70.0
20
-126.5
40
0.0
41
0.0
42
0.0
10
70.0
20
-127.5
40
0.0
41
0.0
42
0.0
10
67.5
20
-127.5
40
0.0
41
0.0
42
0.0
10
67.5
20
-122.5
40
0.0
41
0.0
42
0.0
210
0.0
220
0.0
230
1.0
0
LWPOLYLINE
5
147
102
{ACAD_REACTORS
330
14C
102
}
330
1B
100
AcDbEntity
67
0
8
layer 35
62
4
6
ByLayer
370
13
48
1.0
60
0
100
AcDbPolyline
90
4
70
1
38
0.0
39
0.0
10
79.5
20
-122.0
40
0.0
41
0.0
42
0.0
10
79.5
20
-120.5
40
0.0
41
0.0
42
0.0
10
70.5
20
-120.5
40
0.0
41
0.0
42
0.0
10
70.5
20
-122.0
40
0.0
41
0.0
42
0.0
210
0.0
220
0.0
230
1.0
0
LWPOLYLINE
5
148
102
{ACAD_REACTORS
330
14C
102
}
330
1B
100
AcDbEntity
67
0
8
layer 35
62
4
6
ByLayer
370
13
48
1.0
60
0
100
AcDbPolyline
90
4
70
1
38
0.0
39
0.0
10
79.5
20
-124.0
40
0.0
41
0.0
42
0.0
10
79.5
20
-126.0
40
0.0
41
0.0
42
0.0
10
70.5
20
-126.0
40
0.0
41
0.0
42
0.0
10
70.5
20
-124.0
40
0.0
41
0.0
42
0.0
210
0.0
220
0.0
230
1.0
0
LWPOLYLINE
5
149
102
{ACAD_REACTORS
330
14C
102
}
330
1B
100
AcDbEntity
67
0
8
layer 35
62
4
6
ByLayer
370
13
48
1.0
60
0
100
AcDbPolyline
90
4
70
1
38
0.0
39
0.0
10
79.5
20
-128.0
40
0.0
41
0.0
42
0.0
10
79.5
20
-129.5
40
0.0
41
0.0
42
0.0
10
70.5
20
-129.5
40
0.0
41
0.0
42
0.0
10
70.5
20
-128.0
40
0.0
41
0.0
42
0.0
210
0.0
220
0.0
230
1.0
0
LWPOLYLINE
5
14A
102
{ACAD_REACTORS
330
14C
102
}
330
1B
100
AcDbEntity
67
0
8
layer 35
62
4
6
ByLayer
370
13
48
1.0
60
0
100
AcDbPolyline
90
4
70
1
38
0.0
39
0.0
10
79.5
20
-122.5
40
0.0
41
0.0
42
0.0
10
79.5
20
-123.5
40
0.0
41
0.0
42
0.0
10
70.5
20
-123.5
40
0.0
41
0.0
42
0.0
10
70.5
20
-122.5
40
0.0
41
0.0
42
0.0
210
0.0
220
0.0
230
1.0
0
LWPOLYLINE
5
14B
102
{ACAD_REACTORS
330
14C
102
}
330
1B
100
AcDbEntity
67
0
8
layer 35
62
4
6
ByLayer
370
13
48
1.0
60
0
100
AcDbPolyline
90
4
70
1
38
0.0
39
0.0
10
79.5
20
-126.5
40
0.0
41
0.0
42
0.0
10
79.5
20
-127.5
40
0.0
41
0.0
42
0.0
10
70.5
20
-127.5
40
0.0
41
0.0
42
0.0
10
70.5
20
-126.5
40
0.0
41
0.0
42
0.0
210
0.0
220
0.0
230
1.0
0
LWPOLYLINE
5
14E
330
1B
100
AcDbEntity
67
0
8
layer 36
62
3
6
ByLayer
370
-1
48
1.0
60
0
100
AcDbPolyline
90
4
70
1
38
0.0
39
0.0
10
21.0
20
-150.0
40
0.0
41
0.0
42
0.0
10
31.0
20
-150.0
40
0.0
41
0.0
42
0.0
10
31.0
20
-140.0
40
0.0
41
0.0
42
0.0
10
21.0
20
-140.0
40
0.0
41
0.0
42
0.31265021563387
210
0.0
220
0.0
230
1.0
0
LWPOLYLINE
5
150
330
1B
100
AcDbEntity
67
0
8
layer 36
62
3
6
ByLayer
370
-1
48
1.0
60
0
100
AcDbPolyline
90
4
70
1
38
0.0
39
0.0
10
21.2667489387557
20
-149.5
40
0.0
41
0.0
42
0.0
10
30.5
20
-149.5
40
0.0
41
0.0
42
0.0
10
30.5
20
-140.5
40
0.0
41
0.0
42
0.0
10
21.2667489387557
20
-140.5
40
0.0
41
0.0
42
0.29555555931667
210
0.0
220
0.0
230
1.0
0
LWPOLYLINE
5
151
330
1B
100
AcDbEntity
67
0
8
layer 36
62
2
6
ByLayer
370
-1
48
1.0
60
0
100
AcDbPolyline
90
4
70
1
38
0.0
39
0.0
10
10.0
20
-150.0
40
0.0
41
0.0
42
0.0
10
20.0
20
-150.0
40
0.0
41
0.0
42
-0.31265021563387
10
20.0
20
-140.0
40
0.0
41
0.0
42
0.0
10
10.0
20
-140.0
40
0.0
41
0.0
42
0.0
210
0.0
220
0.0
230
1.0
0
LWPOLYLINE
5
152
330
1B
100
AcDbEntity
67
0
8
layer 36
62
2
6
ByLayer
370
-1
48
1.0
60
0
100
AcDbPolyline
90
4
70
1
38
0.0
39
0.0
10
10.5
20
-149.5
40
0.0
41
0.0
42
0.0
10
19.101132217923
20
-149.5
40
0.0
41
0.0
42
-0.258751843576081
10
19.101132217923
20
-140.5
40
0.0
41
0.0
42
0.0
10
10.5
20
-140.5
40
0.0
41
0.0
42
0.0
210
0.0
220
0.0
230
1.0
0
HATCH
5
155
330
1B
100
AcDbEntity
67
0
8
layer 36
62
4
6
ByLayer
370
0
48
1.0
60
0
100
AcDbHatch
10
0.0
20
0.0
30
0.0
210
0.0
220
0.0
230
1.0
2
LINE
70
0
71
1
91
2
92
7
72
1
73
1
93
4
10
10.0
20
-150.0
42
0.0
10
20.0
20
-150.0
42
-0.31265021563387
10
20.0
20
-140.0
42
0.0
10
10.0
20
-140.0
42
0.0
97
1
330
153
92
7
72
1
73
1
93
4
10
10.5
20
-149.5
42
0.0
10
19.101132217923
20
-149.5
42
-0.258751843576081
10
19.101132217923
20
-140.5
42
0.0
10
10.5
20
-140.5
42
0.0
97
1
330
154
75
0
76
0
52
45.0
41
0.5
77
0
78
0
47
0.0
98
1
10
0.0
20
0.0
1001
ACAD
1010
0.0
1020
0.0
1030
0.0
0
LWPOLYLINE
5
153
102
{ACAD_REACTORS
330
155
102
}
330
1B
100
AcDbEntity
67
0
8
layer 36
62
4
6
ByLayer
370
13
48
1.0
60
0
100
AcDbPolyline
90
4
70
1
38
0.0
39
0.0
10
10.0
20
-150.0
40
0.0
41
0.0
42
0.0
10
20.0
20
-150.0
40
0.0
41
0.0
42
-0.31265021563387
10
20.0
20
-140.0
40
0.0
41
0.0
42
0.0
10
10.0
20
-140.0
40
0.0
41
0.0
42
0.0
210
0.0
220
0.0
230
1.0
0
LWPOLYLINE
5
154
102
{ACAD_REACTORS
330
155
102
}
330
1B
100
AcDbEntity
67
0
8
layer 36
62
4
6
ByLayer
370
13
48
1.0
60
0
100
AcDbPolyline
90
4
70
1
38
0.0
39
0.0
10
10.5
20
-149.5
40
0.0
41
0.0
42
0.0
10
19.101132217923
20
-149.5
40
0.0
41
0.0
42
-0.258751843576081
10
19.101132217923
20
-140.5
40
0.0
41
0.0
42
0.0
10
10.5
20
-140.5
40
0.0
41
0.0
42
0.0
210
0.0
220
0.0
230
1.0
0
HATCH
5
158
330
1B
100
AcDbEntity
67
0
8
layer 36
62
4
6
ByLayer
370
0
48
1.0
60
0
100
AcDbHatch
10
0.0
20
0.0
30
0.0
210
0.0
220
0.0
230
1.0
2
LINE
70
0
71
1
91
2
92
7
72
1
73
1
93
4
10
21.0
20
-150.0
42
0.0
10
31.0
20
-150.0
42
0.0
10
31.0
20
-140.0
42
0.0
10
21.0
20
-140.0
42
0.31265021563387
97
1
330
156
92
7
72
1
73
1
93
4
10
21.2667489387557
20
-149.5
42
0.0
10
30.5
20
-149.5
42
0.0
10
30.5
20
-140.5
42
0.0
10
21.2667489387557
20
-140.5
42
0.29555555931667
97
1
330
157
75
0
76
0
52
45.0
41
0.5
77
0
78
0
47
0.0
98
1
10
0.0
20
0.0
1001
ACAD
1010
0.0
1020
0.0
1030
0.0
0
LWPOLYLINE
5
156
102
{ACAD_REACTORS
330
158
102
}
330
1B
100
AcDbEntity
67
0
8
layer 36
62
4
6
ByLayer
370
13
48
1.0
60
0
100
AcDbPolyline
90
4
70
1
38
0.0
39
0.0
10
21.0
20
-150.0
40
0.0
41
0.0
42
0.0
10
31.0
20
-150.0
40
0.0
41
0.0
42
0.0
10
31.0
20
-140.0
40
0.0
41
0.0
42
0.0
10
21.0
20
-140.0
40
0.0
41
0.0
42
0.31265021563387
210
0.0
220
0.0
230
1.0
0
LWPOLYLINE
5
157
102
{ACAD_REACTORS
330
158
102
}
330
1B
100
AcDbEntity
67
0
8
layer 36
62
4
6
ByLayer
370
13
48
1.0
60
0
100
AcDbPolyline
90
4
70
1
38
0.0
39
0.0
10
21.2667489387557
20
-149.5
40
0.0
41
0.0
42
0.0
10
30.5
20
-149.5
40
0.0
41
0.0
42
0.0
10
30.5
20
-140.5
40
0.0
41
0.0
42
0.0
10
21.2667489387557
20
-140.5
40
0.0
41
0.0
42
0.29555555931667
210
0.0
220
0.0
230
1.0
0
LWPOLYLINE
5
15A
330
1B
100
AcDbEntity
67
0
8
layer 37
62
3
6
ByLayer
370
-1
48
1.0
60
0
100
AcDbPolyline
90
4
70
1
38
0.0
39
0.0
10
50.0
20
-150.0
40
0.0
41
0.0
42
0.0
10
60.0
20
-150.0
40
0.0
41
0.0
42
0.0
10
60.0
20
-140.0
40
0.0
41
0.0
42
0.0
10
50.0
20
-140.0
40
0.0
41
0.0
42
0.31265021563387
210
0.0
220
0.0
230
1.0
0
LWPOLYLINE
5
15C
330
1B
100
AcDbEntity
67
0
8
layer 37
62
3
6
ByLayer
370
-1
48
1.0
60
0
100
AcDbPolyline
90
4
70
1
38
0.0
39
0.0
10
50.2667489387557
20
-149.5
40
0.0
41
0.0
42
0.0
10
59.5
20
-149.5
40
0.0
41
0.0
42
0.0
10
59.5
20
-140.5
40
0.0
41
0.0
42
0.0
10
50.2667489387557
20
-140.5
40
0.0
41
0.0
42
0.29555555931667
210
0.0
220
0.0
230
1.0
0
LWPOLYLINE
5
15D
330
1B
100
AcDbEntity
67
0
8
layer 37
62
2
6
ByLayer
370
-1
48
1.0
60
0
100
AcDbPolyline
90
4
70
1
38
0.0
39
0.0
10
40.0
20
-150.0
40
0.0
41
0.0
42
0.0
10
50.0
20
-150.0
40
0.0
41
0.0
42
-0.31265021563387
10
50.0
20
-140.0
40
0.0
41
0.0
42
0.0
10
40.0
20
-140.0
40
0.0
41
0.0
42
0.0
210
0.0
220
0.0
230
1.0
0
LWPOLYLINE
5
15E
330
1B
100
AcDbEntity
67
0
8
layer 37
62
2
6
ByLayer
370
-1
48
1.0
60
0
100
AcDbPolyline
90
4
70
1
38
0.0
39
0.0
10
40.5
20
-149.5
40
0.0
41
0.0
42
0.0
10
49.101132217923
20
-149.5
40
0.0
41
0.0
42
-0.258751843576081
10
49.101132217923
20
-140.5
40
0.0
41
0.0
42
0.0
10
40.5
20
-140.5
40
0.0
41
0.0
42
0.0
210
0.0
220
0.0
230
1.0
0
HATCH
5
162
330
1B
100
AcDbEntity
67
0
8
layer 37
62
4
6
ByLayer
370
0
48
1.0
60
0
100
AcDbHatch
10
0.0
20
0.0
30
0.0
210
0.0
220
0.0
230
1.0
2
LINE
70
0
71
1
91
3
92
7
72
1
73
1
93
6
10
40.0
20
-150.0
42
0.0
10
50.0
20
-150.0
42
0.0
10
60.0
20
-150.0
42
0.0
10
60.0
20
-140.0
42
0.0
10
50.0
20
-140.0
42
0.0
10
40.0
20
-140.0
42
0.0
97
1
330
15F
92
7
72
1
73
1
93
4
10
40.5
20
-149.5
42
0.0
10
49.101132217923
20
-149.5
42
-0.258751843576081
10
49.101132217923
20
-140.5
42
0.0
10
40.5
20
-140.5
42
0.0
97
1
330
160
92
7
72
1
73
1
93
4
10
50.2667489387557
20
-149.5
42
0.0
10
59.5
20
-149.5
42
0.0
10
59.5
20
-140.5
42
0.0
10
50.2667489387557
20
-140.5
42
0.29555555931667
97
1
330
161
75
0
76
0
52
45.0
41
0.5
77
0
78
0
47
0.0
98
1
10
0.0
20
0.0
1001
ACAD
1010
0.0
1020
0.0
1030
0.0
0
LWPOLYLINE
5
15F
102
{ACAD_REACTORS
330
162
102
}
330
1B
100
AcDbEntity
67
0
8
layer 37
62
4
6
ByLayer
370
13
48
1.0
60
0
100
AcDbPolyline
90
6
70
1
38
0.0
39
0.0
10
40.0
20
-150.0
40
0.0
41
0.0
42
0.0
10
50.0
20
-150.0
40
0.0
41
0.0
42
0.0
10
60.0
20
-150.0
40
0.0
41
0.0
42
0.0
10
60.0
20
-140.0
40
0.0
41
0.0
42
0.0
10
50.0
20
-140.0
40
0.0
41
0.0
42
0.0
10
40.0
20
-140.0
40
0.0
41
0.0
42
0.0
210
0.0
220
0.0
230
1.0
0
LWPOLYLINE
5
160
102
{ACAD_REACTORS
330
162
102
}
330
1B
100
AcDbEntity
67
0
8
layer 37
62
4
6
ByLayer
370
13
48
1.0
60
0
100
AcDbPolyline
90
4
70
1
38
0.0
39
0.0
10
40.5
20
-149.5
40
0.0
41
0.0
42
0.0
10
49.101132217923
20
-149.5
40
0.0
41
0.0
42
-0.258751843576081
10
49.101132217923
20
-140.5
40
0.0
41
0.0
42
0.0
10
40.5
20
-140.5
40
0.0
41
0.0
42
0.0
210
0.0
220
0.0
230
1.0
0
LWPOLYLINE
5
161
102
{ACAD_REACTORS
330
162
102
}
330
1B
100
AcDbEntity
67
0
8
layer 37
62
4
6
ByLayer
370
13
48
1.0
60
0
100
AcDbPolyline
90
4
70
1
38
0.0
39
0.0
10
50.2667489387557
20
-149.5
40
0.0
41
0.0
42
0.0
10
59.5
20
-149.5
40
0.0
41
0.0
42
0.0
10
59.5
20
-140.5
40
0.0
41
0.0
42
0.0
10
50.2667489387557
20
-140.5
40
0.0
41
0.0
42
0.29555555931667
210
0.0
220
0.0
230
1.0
0
LWPOLYLINE
5
164
330
1B
100
AcDbEntity
67
0
8
layer 38
62
3
6
ByLayer
370
-1
48
1.0
60
0
100
AcDbPolyline
90
4
70
1
38
0.0
39
0.0
10
70.0
20
-150.0
40
0.0
41
0.0
42
0.0
10
80.0
20
-150.0
40
0.0
41
0.0
42
0.0
10
80.0
20
-140.0
40
0.0
41
0.0
42
0.0
10
70.0
20
-140.0
40
0.0
41
0.0
42
0.31265021563387
210
0.0
220
0.0
230
1.0
0
LWPOLYLINE
5
166
330
1B
100
AcDbEntity
67
0
8
layer 38
62
3
6
ByLayer
370
-1
48
1.0
60
0
100
AcDbPolyline
90
4
70
1
38
0.0
39
0.0
10
70.2667489387557
20
-149.5
40
0.0
41
0.0
42
0.0
10
79.5
20
-149.5
40
0.0
41
0.0
42
0.0
10
79.5
20
-140.5
40
0.0
41
0.0
42
0.0
10
70.2667489387557
20
-140.5
40
0.0
41
0.0
42
0.29555555931667
210
0.0
220
0.0
230
1.0
0
LWPOLYLINE
5
167
330
1B
100
AcDbEntity
67
0
8
layer 38
62
2
6
ByLayer
370
-1
48
1.0
60
0
100
AcDbPolyline
90
4
70
1
38
0.0
39
0.0
10
70.0
20
-150.0
40
0.0
41
0.0
42
0.0
10
80.0
20
-150.0
40
0.0
41
0.0
42
0.0
10
80.0
20
-140.0
40
0.0
41
0.0
42
0.0
10
70.0
20
-140.0
40
0.0
41
0.0
42
0.31265021563387
210
0.0
220
0.0
230
1.0
0
LWPOLYLINE
5
168
330
1B
100
AcDbEntity
67
0
8
layer 38
62
2
6
ByLayer
370
-1
48
1.0
60
0
100
AcDbPolyline
90
4
70
1
38
0.0
39
0.0
10
70.2667489387557
20
-149.5
40
0.0
41
0.0
42
0.0
10
79.5
20
-149.5
40
0.0
41
0.0
42
0.0
10
79.5
20
-140.5
40
0.0
41
0.0
42
0.0
10
70.2667489387557
20
-140.5
40
0.0
41
0.0
42
0.29555555931667
210
0.0
220
0.0
230
1.0
0
HATCH
5
16B
330
1B
100
AcDbEntity
67
0
8
layer 38
62
4
6
ByLayer
370
0
48
1.0
60
0
100
AcDbHatch
10
0.0
20
0.0
30
0.0
210
0.0
220
0.0
230
1.0
2
LINE
70
0
71
1
91
2
92
7
72
1
73
1
93
4
10
70.0
20
-150.0
42
0.0
10
80.0
20
-150.0
42
0.0
10
80.0
20
-140.0
42
0.0
10
70.0
20
-140.0
42
0.31265021563387
97
1
330
169
92
7
72
1
73
1
93
4
10
70.2667489387557
20
-149.5
42
0.0
10
79.5
20
-149.5
42
0.0
10
79.5
20
-140.5
42
0.0
10
70.2667489387557
20
-140.5
42
0.29555555931667
97
1
330
16A
75
0
76
0
52
45.0
41
0.5
77
0
78
0
47
0.0
98
1
10
0.0
20
0.0
1001
ACAD
1010
0.0
1020
0.0
1030
0.0
0
LWPOLYLINE
5
169
102
{ACAD_REACTORS
330
16B
102
}
330
1B
100
AcDbEntity
67
0
8
layer 38
62
4
6
ByLayer
370
13
48
1.0
60
0
100
AcDbPolyline
90
4
70
1
38
0.0
39
0.0
10
70.0
20
-150.0
40
0.0
41
0.0
42
0.0
10
80.0
20
-150.0
40
0.0
41
0.0
42
0.0
10
80.0
20
-140.0
40
0.0
41
0.0
42
0.0
10
70.0
20
-140.0
40
0.0
41
0.0
42
0.31265021563387
210
0.0
220
0.0
230
1.0
0
LWPOLYLINE
5
16A
102
{ACAD_REACTORS
330
16B
102
}
330
1B
100
AcDbEntity
67
0
8
layer 38
62
4
6
ByLayer
370
13
48
1.0
60
0
100
AcDbPolyline
90
4
70
1
38
0.0
39
0.0
10
70.2667489387557
20
-149.5
40
0.0
41
0.0
42
0.0
10
79.5
20
-149.5
40
0.0
41
0.0
42
0.0
10
79.5
20
-140.5
40
0.0
41
0.0
42
0.0
10
70.2667489387557
20
-140.5
40
0.0
41
0.0
42
0.29555555931667
210
0.0
220
0.0
230
1.0
0
LWPOLYLINE
5
16D
330
1B
100
AcDbEntity
67
0
8
layer 39
62
3
6
ByLayer
370
-1
48
1.0
60
0
100
AcDbPolyline
90
4
70
1
38
0.0
39
0.0
10
91.0
20
-148.0
40
0.0
41
0.0
42
0.0
10
98.0
20
-148.0
40
0.0
41
0.0
42
0.0
10
98.0
20
-142.0
40
0.0
41
0.0
42
0.0
10
91.0
20
-142.0
40
0.0
41
0.0
42
0.31265021563387
210
0.0
220
0.0
230
1.0
0
LWPOLYLINE
5
16F
330
1B
100
AcDbEntity
67
0
8
layer 39
62
3
6
ByLayer
370
-1
48
1.0
60
0
100
AcDbPolyline
90
4
70
1
38
0.0
39
0.0
10
91.2702539236171
20
-147.5
40
0.0
41
0.0
42
0.0
10
97.5
20
-147.5
40
0.0
41
0.0
42
0.0
10
97.5
20
-142.5
40
0.0
41
0.0
42
0.0
10
91.2702539236171
20
-142.5
40
0.0
41
0.0
42
0.283281828207466
210
0.0
220
0.0
230
1.0
0
LWPOLYLINE
5
170
330
1B
100
AcDbEntity
67
0
8
layer 39
62
2
6
ByLayer
370
-1
48
1.0
60
0
100
AcDbPolyline
90
4
70
1
38
0.0
39
0.0
10
90.0
20
-150.0
40
0.0
41
0.0
42
0.0
10
100.0
20
-150.0
40
0.0
41
0.0
42
0.0
10
100.0
20
-140.0
40
0.0
41
0.0
42
0.0
10
90.0
20
-140.0
40
0.0
41
0.0
42
0.31265021563387
210
0.0
220
0.0
230
1.0
0
LWPOLYLINE
5
171
330
1B
100
AcDbEntity
67
0
8
layer 39
62
2
6
ByLayer
370
-1
48
1.0
60
0
100
AcDbPolyline
90
4
70
1
38
0.0
39
0.0
10
90.2667489387557
20
-149.5
40
0.0
41
0.0
42
0.0
10
99.5
20
-149.5
40
0.0
41
0.0
42
0.0
10
99.5
20
-140.5
40
0.0
41
0.0
42
0.0
10
90.2667489387557
20
-140.5
40
0.0
41
0.0
42
0.29555555931667
210
0.0
220
0.0
230
1.0
0
HATCH
5
174
330
1B
100
AcDbEntity
67
0
8
layer 39
62
4
6
ByLayer
370
0
48
1.0
60
0
100
AcDbHatch
10
0.0
20
0.0
30
0.0
210
0.0
220
0.0
230
1.0
2
LINE
70
0
71
1
91
2
92
7
72
1
73
1
93
4
10
90.0
20
-150.0
42
0.0
10
100.0
20
-150.0
42
0.0
10
100.0
20
-140.0
42
0.0
10
90.0
20
-140.0
42
0.31265021563387
97
1
330
172
92
7
72
1
73
1
93
4
10
90.2667489387557
20
-149.5
42
0.0
10
99.5
20
-149.5
42
0.0
10
99.5
20
-140.5
42
0.0
10
90.2667489387557
20
-140.5
42
0.29555555931667
97
1
330
173
75
0
76
0
52
45.0
41
0.5
77
0
78
0
47
0.0
98
1
10
0.0
20
0.0
1001
ACAD
1010
0.0
1020
0.0
1030
0.0
0
LWPOLYLINE
5
172
102
{ACAD_REACTORS
330
174
102
}
330
1B
100
AcDbEntity
67
0
8
layer 39
62
4
6
ByLayer
370
13
48
1.0
60
0
100
AcDbPolyline
90
4
70
1
38
0.0
39
0.0
10
90.0
20
-150.0
40
0.0
41
0.0
42
0.0
10
100.0
20
-150.0
40
0.0
41
0.0
42
0.0
10
100.0
20
-140.0
40
0.0
41
0.0
42
0.0
10
90.0
20
-140.0
40
0.0
41
0.0
42
0.31265021563387
210
0.0
220
0.0
230
1.0
0
LWPOLYLINE
5
173
102
{ACAD_REACTORS
330
174
102
}
330
1B
100
AcDbEntity
67
0
8
layer 39
62
4
6
ByLayer
370
13
48
1.0
60
0
100
AcDbPolyline
90
4
70
1
38
0.0
39
0.0
10
90.2667489387557
20
-149.5
40
0.0
41
0.0
42
0.0
10
99.5
20
-149.5
40
0.0
41
0.0
42
0.0
10
99.5
20
-140.5
40
0.0
41
0.0
42
0.0
10
90.2667489387557
20
-140.5
40
0.0
41
0.0
42
0.29555555931667
210
0.0
220
0.0
230
1.0
0
HATCH
5
177
330
1B
100
AcDbEntity
67
0
8
layer 39
62
4
6
ByLayer
370
0
48
1.0
60
0
100
AcDbHatch
10
0.0
20
0.0
30
0.0
210
0.0
220
0.0
230
1.0
2
LINE
70
0
71
1
91
2
92
7
72
1
73
1
93
4
10
91.0
20
-148.0
42
0.0
10
98.0
20
-148.0
42
0.0
10
98.0
20
-142.0
42
0.0
10
91.0
20
-142.0
42
0.31265021563387
97
1
330
175
92
7
72
1
73
1
93
4
10
91.2702539236171
20
-147.5
42
0.0
10
97.5
20
-147.5
42
0.0
10
97.5
20
-142.5
42
0.0
10
91.2702539236171
20
-142.5
42
0.283281828207466
97
1
330
176
75
0
76
0
52
45.0
41
0.5
77
0
78
0
47
0.0
98
1
10
0.0
20
0.0
1001
ACAD
1010
0.0
1020
0.0
1030
0.0
0
LWPOLYLINE
5
175
102
{ACAD_REACTORS
330
177
102
}
330
1B
100
AcDbEntity
67
0
8
layer 39
62
4
6
ByLayer
370
13
48
1.0
60
0
100
AcDbPolyline
90
4
70
1
38
0.0
39
0.0
10
91.0
20
-148.0
40
0.0
41
0.0
42
0.0
10
98.0
20
-148.0
40
0.0
41
0.0
42
0.0
10
98.0
20
-142.0
40
0.0
41
0.0
42
0.0
10
91.0
20
-142.0
40
0.0
41
0.0
42
0.31265021563387
210
0.0
220
0.0
230
1.0
0
LWPOLYLINE
5
176
102
{ACAD_REACTORS
330
177
102
}
330
1B
100
AcDbEntity
67
0
8
layer 39
62
4
6
ByLayer
370
13
48
1.0
60
0
100
AcDbPolyline
90
4
70
1
38
0.0
39
0.0
10
91.2702539236171
20
-147.5
40
0.0
41
0.0
42
0.0
10
97.5
20
-147.5
40
0.0
41
0.0
42
0.0
10
97.5
20
-142.5
40
0.0
41
0.0
42
0.0
10
91.2702539236171
20
-142.5
40
0.0
41
0.0
42
0.283281828207466
210
0.0
220
0.0
230
1.0
0
LWPOLYLINE
5
179
330
1B
100
AcDbEntity
67
0
8
layer 40
62
3
6
ByLayer
370
-1
48
1.0
60
0
100
AcDbPolyline
90
4
70
1
38
0.0
39
0.0
10
18.0
20
-170.0
40
0.0
41
0.0
42
0.0
10
28.0
20
-170.0
40
0.0
41
0.0
42
0.0
10
28.0
20
-160.0
40
0.0
41
0.0
42
0.0
10
18.0
20
-160.0
40
0.0
41
0.0
42
0.31265021563387
210
0.0
220
0.0
230
1.0
0
LWPOLYLINE
5
17B
330
1B
100
AcDbEntity
67
0
8
layer 40
62
3
6
ByLayer
370
-1
48
1.0
60
0
100
AcDbPolyline
90
4
70
1
38
0.0
39
0.0
10
18.2667489387557
20
-169.5
40
0.0
41
0.0
42
0.0
10
27.5
20
-169.5
40
0.0
41
0.0
42
0.0
10
27.5
20
-160.5
40
0.0
41
0.0
42
0.0
10
18.2667489387557
20
-160.5
40
0.0
41
0.0
42
0.29555555931667
210
0.0
220
0.0
230
1.0
0
LWPOLYLINE
5
17C
330
1B
100
AcDbEntity
67
0
8
layer 40
62
2
6
ByLayer
370
-1
48
1.0
60
0
100
AcDbPolyline
90
4
70
1
38
0.0
39
0.0
10
10.0
20
-170.0
40
0.0
41
0.0
42
0.0
10
20.0
20
-170.0
40
0.0
41
0.0
42
-0.31265021563387
10
20.0
20
-160.0
40
0.0
41
0.0
42
0.0
10
10.0
20
-160.0
40
0.0
41
0.0
42
0.0
210
0.0
220
0.0
230
1.0
0
LWPOLYLINE
5
17D
330
1B
100
AcDbEntity
67
0
8
layer 40
62
2
6
ByLayer
370
-1
48
1.0
60
0
100
AcDbPolyline
90
4
70
1
38
0.0
39
0.0
10
10.5
20
-169.5
40
0.0
41
0.0
42
0.0
10
19.101132217923
20
-169.5
40
0.0
41
0.0
42
-0.258751843576081
10
19.101132217923
20
-160.5
40
0.0
41
0.0
42
0.0
10
10.5
20
-160.5
40
0.0
41
0.0
42
0.0
210
0.0
220
0.0
230
1.0
0
HATCH
5
182
330
1B
100
AcDbEntity
67
0
8
layer 40
62
4
6
ByLayer
370
0
48
1.0
60
0
100
AcDbHatch
10
0.0
20
0.0
30
0.0
210
0.0
220
0.0
230
1.0
2
LINE
70
0
71
1
91
4
92
7
72
1
73
1
93
8
10
18.0
20
-170.0
42
0.0
10
10.0
20
-170.0
42
0.0
10
10.0
20
-160.0
42
0.0
10
18.0
20
-160.0
42
0.0
10
20.0
20
-160.0
42
0.0
10
28.0
20
-160.0
42
0.0
10
28.0
20
-170.0
42
0.0
10
20.0
20
-170.0
42
0.0
97
1
330
17E
92
7
72
1
73
1
93
4
10
19.6779895062976
20
-169.5
42
-0.275831240992655
10
19.6779895062976
20
-160.5
42
0.0
10
27.5
20
-160.5
42
0.0
10
27.5
20
-169.5
42
0.0
97
1
330
17F
92
7
72
1
73
1
93
4
10
17.6779895062976
20
-169.5
42
0.0
10
10.5
20
-169.5
42
0.0
10
10.5
20
-160.5
42
0.0
10
17.6779895062976
20
-160.5
42
0.275831240992654
97
1
330
180
92
7
72
1
73
1
93
4
10
18.2667489387557
20
-169.5
42
-0.29555555931667
10
18.2667489387557
20
-160.5
42
0.0
10
19.101132217923
20
-160.5
42
0.258751843576081
10
19.101132217923
20
-169.5
42
0.0
97
1
330
181
75
0
76
0
52
45.0
41
0.5
77
0
78
0
47
0.0
98
1
10
0.0
20
0.0
1001
ACAD
1010
0.0
1020
0.0
1030
0.0
0
LWPOLYLINE
5
17E
102
{ACAD_REACTORS
330
182
102
}
330
1B
100
AcDbEntity
67
0
8
layer 40
62
4
6
ByLayer
370
13
48
1.0
60
0
100
AcDbPolyline
90
8
70
1
38
0.0
39
0.0
10
18.0
20
-170.0
40
0.0
41
0.0
42
0.0
10
10.0
20
-170.0
40
0.0
41
0.0
42
0.0
10
10.0
20
-160.0
40
0.0
41
0.0
42
0.0
10
18.0
20
-160.0
40
0.0
41
0.0
42
0.0
10
20.0
20
-160.0
40
0.0
41
0.0
42
0.0
10
28.0
20
-160.0
40
0.0
41
0.0
42
0.0
10
28.0
20
-170.0
40
0.0
41
0.0
42
0.0
10
20.0
20
-170.0
40
0.0
41
0.0
42
0.0
210
0.0
220
0.0
230
1.0
0
LWPOLYLINE
5
17F
102
{ACAD_REACTORS
330
182
102
}
330
1B
100
AcDbEntity
67
0
8
layer 40
62
4
6
ByLayer
370
13
48
1.0
60
0
100
AcDbPolyline
90
4
70
1
38
0.0
39
0.0
10
19.6779895062976
20
-169.5
40
0.0
41
0.0
42
-0.275831240992655
10
19.6779895062976
20
-160.5
40
0.0
41
0.0
42
0.0
10
27.5
20
-160.5
40
0.0
41
0.0
42
0.0
10
27.5
20
-169.5
40
0.0
41
0.0
42
0.0
210
0.0
220
0.0
230
1.0
0
LWPOLYLINE
5
180
102
{ACAD_REACTORS
330
182
102
}
330
1B
100
AcDbEntity
67
0
8
layer 40
62
4
6
ByLayer
370
13
48
1.0
60
0
100
AcDbPolyline
90
4
70
1
38
0.0
39
0.0
10
17.6779895062976
20
-169.5
40
0.0
41
0.0
42
0.0
10
10.5
20
-169.5
40
0.0
41
0.0
42
0.0
10
10.5
20
-160.5
40
0.0
41
0.0
42
0.0
10
17.6779895062976
20
-160.5
40
0.0
41
0.0
42
0.275831240992654
210
0.0
220
0.0
230
1.0
0
LWPOLYLINE
5
181
102
{ACAD_REACTORS
330
182
102
}
330
1B
100
AcDbEntity
67
0
8
layer 40
62
4
6
ByLayer
370
13
48
1.0
60
0
100
AcDbPolyline
90
4
70
1
38
0.0
39
0.0
10
18.2667489387557
20
-169.5
40
0.0
41
0.0
42
-0.29555555931667
10
18.2667489387557
20
-160.5
40
0.0
41
0.0
42
0.0
10
19.101132217923
20
-160.5
40
0.0
41
0.0
42
0.258751843576081
10
19.101132217923
20
-169.5
40
0.0
41
0.0
42
0.0
210
0.0
220
0.0
230
1.0
0
LWPOLYLINE
5
184
330
1B
100
AcDbEntity
67
0
8
layer 41
62
3
6
ByLayer
370
-1
48
1.0
60
0
100
AcDbPolyline
90
4
70
1
38
0.0
39
0.0
10
48.0
20
-172.0
40
0.0
41
0.0
42
0.0
10
58.0
20
-172.0
40
0.0
41
0.0
42
0.0
10
58.0
20
-162.0
40
0.0
41
0.0
42
0.0
10
48.0
20
-162.0
40
0.0
41
0.0
42
0.31265021563387
210
0.0
220
0.0
230
1.0
0
LWPOLYLINE
5
186
330
1B
100
AcDbEntity
67
0
8
layer 41
62
3
6
ByLayer
370
-1
48
1.0
60
0
100
AcDbPolyline
90
4
70
1
38
0.0
39
0.0
10
48.2667489387557
20
-171.5
40
0.0
41
0.0
42
0.0
10
57.5
20
-171.5
40
0.0
41
0.0
42
0.0
10
57.5
20
-162.5
40
0.0
41
0.0
42
0.0
10
48.2667489387557
20
-162.5
40
0.0
41
0.0
42
0.29555555931667
210
0.0
220
0.0
230
1.0
0
LWPOLYLINE
5
187
330
1B
100
AcDbEntity
67
0
8
layer 41
62
2
6
ByLayer
370
-1
48
1.0
60
0
100
AcDbPolyline
90
4
70
1
38
0.0
39
0.0
10
40.0
20
-170.0
40
0.0
41
0.0
42
0.0
10
50.0
20
-170.0
40
0.0
41
0.0
42
-0.31265021563387
10
50.0
20
-160.0
40
0.0
41
0.0
42
0.0
10
40.0
20
-160.0
40
0.0
41
0.0
42
0.0
210
0.0
220
0.0
230
1.0
0
LWPOLYLINE
5
188
330
1B
100
AcDbEntity
67
0
8
layer 41
62
2
6
ByLayer
370
-1
48
1.0
60
0
100
AcDbPolyline
90
4
70
1
38
0.0
39
0.0
10
40.5
20
-169.5
40
0.0
41
0.0
42
0.0
10
49.101132217923
20
-169.5
40
0.0
41
0.0
42
-0.258751843576081
10
49.101132217923
20
-160.5
40
0.0
41
0.0
42
0.0
10
40.5
20
-160.5
40
0.0
41
0.0
42
0.0
210
0.0
220
0.0
230
1.0
0
HATCH
5
18D
330
1B
100
AcDbEntity
67
0
8
layer 41
62
4
6
ByLayer
370
0
48
1.0
60
0
100
AcDbHatch
10
0.0
20
0.0
30
0.0
210
0.0
220
0.0
230
1.0
2
LINE
70
0
71
1
91
4
92
7
72
1
73
1
93
8
10
46.965321462836
20
-170.0
42
0.0
10
40.0
20
-170.0
42
0.0
10
40.0
20
-160.0
42
0.0
10
50.0
20
-160.0
42
0.0643992160784995
10
48.965321462836
20
-162.0
42
0.0
10
58.0
20
-162.0
42
0.0
10
58.0
20
-172.0
42
0.0
10
48.0
20
-172.0
42
-0.0643992160784994
97
1
330
189
92
7
72
1
73
1
93
6
10
47.4995017780595
20
-170.0
42
0.0
10
50.0
20
-170.0
42
-0.227521254077911
10
48.8002896166125
20
-162.5
42
0.0
10
57.5
20
-162.5
42
0.0
10
57.5
20
-171.5
42
0.0
10
48.2667489387557
20
-171.5
42
-0.0510166830012767
97
1
330
18A
92
7
72
1
73
1
93
6
10
46.8002896166125
20
-169.5
42
0.0
10
40.5
20
-169.5
42
0.0
10
40.5
20
-160.5
42
0.0
10
49.101132217923
20
-160.5
42
0.0443105394137672
10
48.4351665538129
20
-162.0
42
0.0
10
48.0
20
-162.0
42
0.22752125407791
97
1
330
18B
92
7
72
1
73
1
93
4
10
47.3232905417449
20
-169.5
42
0.0
10
49.101132217923
20
-169.5
42
-0.197309908722865
10
48.2799218790198
20
-162.5
42
0.0
10
48.2667489387557
20
-162.5
42
0.224027003554786
97
1
330
18C
75
0
76
0
52
45.0
41
0.5
77
0
78
0
47
0.0
98
1
10
0.0
20
0.0
1001
ACAD
1010
0.0
1020
0.0
1030
0.0
0
LWPOLYLINE
5
189
102
{ACAD_REACTORS
330
18D
102
}
330
1B
100
AcDbEntity
67
0
8
layer 41
62
4
6
ByLayer
370
13
48
1.0
60
0
100
AcDbPolyline
90
8
70
1
38
0.0
39
0.0
10
46.965321462836
20
-170.0
40
0.0
41
0.0
42
0.0
10
40.0
20
-170.0
40
0.0
41
0.0
42
0.0
10
40.0
20
-160.0
40
0.0
41
0.0
42
0.0
10
50.0
20
-160.0
40
0.0
41
0.0
42
0.0643992160784995
10
48.965321462836
20
-162.0
40
0.0
41
0.0
42
0.0
10
58.0
20
-162.0
40
0.0
41
0.0
42
0.0
10
58.0
20
-172.0
40
0.0
41
0.0
42
0.0
10
48.0
20
-172.0
40
0.0
41
0.0
42
-0.0643992160784994
210
0.0
220
0.0
230
1.0
0
LWPOLYLINE
5
18A
102
{ACAD_REACTORS
330
18D
102
}
330
1B
100
AcDbEntity
67
0
8
layer 41
62
4
6
ByLayer
370
13
48
1.0
60
0
100
AcDbPolyline
90
6
70
1
38
0.0
39
0.0
10
47.4995017780595
20
-170.0
40
0.0
41
0.0
42
0.0
10
50.0
20
-170.0
40
0.0
41
0.0
42
-0.227521254077911
10
48.8002896166125
20
-162.5
40
0.0
41
0.0
42
0.0
10
57.5
20
-162.5
40
0.0
41
0.0
42
0.0
10
57.5
20
-171.5
40
0.0
41
0.0
42
0.0
10
48.2667489387557
20
-171.5
40
0.0
41
0.0
42
-0.0510166830012767
210
0.0
220
0.0
230
1.0
0
LWPOLYLINE
5
18B
102
{ACAD_REACTORS
330
18D
102
}
330
1B
100
AcDbEntity
67
0
8
layer 41
62
4
6
ByLayer
370
13
48
1.0
60
0
100
AcDbPolyline
90
6
70
1
38
0.0
39
0.0
10
46.8002896166125
20
-169.5
40
0.0
41
0.0
42
0.0
10
40.5
20
-169.5
40
0.0
41
0.0
42
0.0
10
40.5
20
-160.5
40
0.0
41
0.0
42
0.0
10
49.101132217923
20
-160.5
40
0.0
41
0.0
42
0.0443105394137672
10
48.4351665538129
20
-162.0
40
0.0
41
0.0
42
0.0
10
48.0
20
-162.0
40
0.0
41
0.0
42
0.22752125407791
210
0.0
220
0.0
230
1.0
0
LWPOLYLINE
5
18C
102
{ACAD_REACTORS
330
18D
102
}
330
1B
100
AcDbEntity
67
0
8
layer 41
62
4
6
ByLayer
370
13
48
1.0
60
0
100
AcDbPolyline
90
4
70
1
38
0.0
39
0.0
10
47.3232905417449
20
-169.5
40
0.0
41
0.0
42
0.0
10
49.101132217923
20
-169.5
40
0.0
41
0.0
42
-0.197309908722865
10
48.2799218790198
20
-162.5
40
0.0
41
0.0
42
0.0
10
48.2667489387557
20
-162.5
40
0.0
41
0.0
42
0.224027003554786
210
0.0
220
0.0
230
1.0
0
LWPOLYLINE
5
18F
330
1B
100
AcDbEntity
67
0
8
layer 42
62
3
6
ByLayer
370
-1
48
1.0
60
0
100
AcDbPolyline
90
8
70
1
38
0.0
39
0.0
10
67.0
20
-162.0
40
0.0
41
0.0
42
-0.118049940810346
10
84.0
20
-162.0
40
0.0
41
0.0
42
0.0
10
84.0
20
-164.0
40
0.0
41
0.0
42
0.0
10
69.0
20
-164.0
40
0.0
41
0.0
42
0.0
10
69.0
20
-166.0
40
0.0
41
0.0
42
0.0
10
84.0
20
-166.0
40
0.0
41
0.0
42
0.0
10
84.0
20
-168.0
40
0.0
41
0.0
42
-0.118049940810346
10
67.0
20
-168.0
40
0.0
41
0.0
42
0.0
210
0.0
220
0.0
230
1.0
0
LWPOLYLINE
5
191
330
1B
100
AcDbEntity
67
0
8
layer 42
62
3
6
ByLayer
370
-1
48
1.0
60
0
100
AcDbPolyline
90
8
70
1
38
0.0
39
0.0
10
67.5
20
-162.396630140354
40
0.0
41
0.0
42
-0.112506829655227
10
83.5
20
-162.396630140354
40
0.0
41
0.0
42
0.0
10
83.5
20
-163.5
40
0.0
41
0.0
42
0.0
10
68.5
20
-163.5
40
0.0
41
0.0
42
0.0
10
68.5
20
-166.5
40
0.0
41
0.0
42
0.0
10
83.5
20
-166.5
40
0.0
41
0.0
42
0.0
10
83.5
20
-167.603369859646
40
0.0
41
0.0
42
-0.112506829655227
10
67.5
20
-167.603369859646
40
0.0
41
0.0
42
0.0
210
0.0
220
0.0
230
1.0
0
LWPOLYLINE
5
192
330
1B
100
AcDbEntity
67
0
8
layer 42
62
2
6
ByLayer
370
-1
48
1.0
60
0
100
AcDbPolyline
90
4
70
1
38
0.0
39
0.0
10
70.0
20
-170.0
40
0.0
41
0.0
42
0.0
10
80.0
20
-170.0
40
0.0
41
0.0
42
-0.31265021563387
10
80.0
20
-160.0
40
0.0
41
0.0
42
0.0
10
70.0
20
-160.0
40
0.0
41
0.0
42
0.0
210
0.0
220
0.0
230
1.0
0
LWPOLYLINE
5
193
330
1B
100
AcDbEntity
67
0
8
layer 42
62
2
6
ByLayer
370
-1
48
1.0
60
0
100
AcDbPolyline
90
4
70
1
38
0.0
39
0.0
10
70.5
20
-169.5
40
0.0
41
0.0
42
0.0
10
79.101132217923
20
-169.5
40
0.0
41
0.0
42
-0.258751843576081
10
79.101132217923
20
-160.5
40
0.0
41
0.0
42
0.0
10
70.5
20
-160.5
40
0.0
41
0.0
42
0.0
210
0.0
220
0.0
230
1.0
0
HATCH
5
19E
330
1B
100
AcDbEntity
67
0
8
layer 42
62
4
6
ByLayer
370
0
48
1.0
60
0
100
AcDbHatch
10
0.0
20
0.0
30
0.0
210
0.0
220
0.0
230
1.0
2
LINE
70
0
71
1
91
10
92
7
72
1
73
1
93
16
10
79.304157127562
20
-161.195339299908
42
-0.0394540874249319
10
80.0
20
-160.0
42
0.0
10
70.0
20
-160.0
42
0.0
10
70.0
20
-161.413298848468
42
0.0209444208593792
10
67.0
20
-162.0
42
0.0
10
67.0
20
-168.0
42
0.0209444208593792
10
70.0
20
-168.586701151532
42
0.0
10
70.0
20
-170.0
42
0.0
10
80.0
20
-170.0
42
-0.0394540874249326
10
79.304157127562
20
-168.804660700092
42
0.0326638459533189
10
84.0
20
-168.0
42
0.0
10
84.0
20
-166.0
42
0.0
10
78.4938969526595
20
-166.0
42
-0.0571480308288162
10
78.4938969526595
20
-164.0
42
0.0
10
84.0
20
-164.0
42
0.0
10
84.0
20
-162.0
42
0.0326638459533189
97
1
330
194
92
7
72
1
73
1
93
4
10
79.0904419541548
20
-161.676051277435
42
0.0542125595502828
10
78.5658630009862
20
-163.5
42
0.0
10
83.5
20
-163.5
42
0.0
10
83.5
20
-162.396630140354
42
0.0310550679208531
97
1
330
195
92
7
72
1
73
1
93
4
10
78.5658630009862
20
-166.5
42
0.0542125595502828
10
79.0904419541548
20
-168.323948722565
42
0.0310550679208537
10
83.5
20
-167.603369859646
42
0.0
10
83.5
20
-166.5
42
0.0
97
1
330
196
92
7
72
1
73
1
93
4
10
70.0
20
-164.0
42
0.0
10
70.0
20
-166.0
42
0.0
10
69.0
20
-166.0
42
0.0
10
69.0
20
-164.0
42
0.0
97
1
330
197
92
7
72
1
73
1
93
8
10
70.0
20
-161.919154373412
42
0.0
10
70.0
20
-163.5
42
0.0
10
68.5
20
-163.5
42
0.0
10
68.5
20
-166.5
42
0.0
10
70.0
20
-166.5
42
0.0
10
70.0
20
-168.080845626588
42
-0.01767876064241
10
67.5
20
-167.603369859646
42
0.0
10
67.5
20
-162.396630140354
42
-0.0176787606424096
97
1
330
198
92
7
72
1
73
1
93
4
10
78.7760720131883
20
-161.143881503048
42
-0.0194430776252073
10
79.101132217923
20
-160.5
42
0.0
10
70.5
20
-160.5
42
0.0
10
70.5
20
-161.340630536471
42
-0.0568795495199702
97
1
330
199
92
7
72
1
73
1
93
4
10
77.9907985522804
20
-164.0
42
0.0540496304497107
10
77.9907985522804
20
-166.0
42
0.0
10
70.5
20
-166.0
42
0.0
10
70.5
20
-164.0
42
0.0
97
1
330
19A
92
7
72
1
73
1
93
4
10
78.7760720131883
20
-168.856118496952
42
0.0194430776252073
10
79.101132217923
20
-169.5
42
0.0
10
70.5
20
-169.5
42
0.0
10
70.5
20
-168.659369463529
42
0.0568795495199703
97
1
330
19B
92
7
72
1
73
1
93
4
10
78.5712908796836
20
-161.62781372936
42
0.0524478999108337
10
78.0588092786762
20
-163.5
42
0.0
10
70.5
20
-163.5
42
0.0
10
70.5
20
-161.845455051241
42
-0.0562430227747562
97
1
330
19C
92
7
72
1
73
1
93
4
10
78.0588092786762
20
-166.5
42
0.0524478999108339
10
78.5712908796836
20
-168.37218627064
42
-0.0562430227747559
10
70.5
20
-168.154544948759
42
0.0
10
70.5
20
-166.5
42
0.0
97
1
330
19D
75
0
76
0
52
45.0
41
0.5
77
0
78
0
47
0.0
98
1
10
0.0
20
0.0
1001
ACAD
1010
0.0
1020
0.0
1030
0.0
0
LWPOLYLINE
5
194
102
{ACAD_REACTORS
330
19E
102
}
330
1B
100
AcDbEntity
67
0
8
layer 42
62
4
6
ByLayer
370
13
48
1.0
60
0
100
AcDbPolyline
90
16
70
1
38
0.0
39
0.0
10
79.304157127562
20
-161.195339299908
40
0.0
41
0.0
42
-0.0394540874249319
10
80.0
20
-160.0
40
0.0
41
0.0
42
0.0
10
70.0
20
-160.0
40
0.0
41
0.0
42
0.0
10
70.0
20
-161.413298848468
40
0.0
41
0.0
42
0.0209444208593792
10
67.0
20
-162.0
40
0.0
41
0.0
42
0.0
10
67.0
20
-168.0
40
0.0
41
0.0
42
0.0209444208593792
10
70.0
20
-168.586701151532
40
0.0
41
0.0
42
0.0
10
70.0
20
-170.0
40
0.0
41
0.0
42
0.0
10
80.0
20
-170.0
40
0.0
41
0.0
42
-0.0394540874249326
10
79.304157127562
20
-168.804660700092
40
0.0
41
0.0
42
0.0326638459533189
10
84.0
20
-168.0
40
0.0
41
0.0
42
0.0
10
84.0
20
-166.0
40
0.0
41
0.0
42
0.0
10
78.4938969526595
20
-166.0
40
0.0
41
0.0
42
-0.0571480308288162
10
78.4938969526595
20
-164.0
40
0.0
41
0.0
42
0.0
10
84.0
20
-164.0
40
0.0
41
0.0
42
0.0
10
84.0
20
-162.0
40
0.0
41
0.0
42
0.0326638459533189
210
0.0
220
0.0
230
1.0
0
LWPOLYLINE
5
195
102
{ACAD_REACTORS
330
19E
102
}
330
1B
100
AcDbEntity
67
0
8
layer 42
62
4
6
ByLayer
370
13
48
1.0
60
0
100
AcDbPolyline
90
4
70
1
38
0.0
39
0.0
10
79.0904419541548
20
-161.676051277435
40
0.0
41
0.0
42
0.0542125595502828
10
78.5658630009862
20
-163.5
40
0.0
41
0.0
42
0.0
10
83.5
20
-163.5
40
0.0
41
0.0
42
0.0
10
83.5
20
-162.396630140354
40
0.0
41
0.0
42
0.0310550679208531
210
0.0
220
0.0
230
1.0
0
LWPOLYLINE
5
196
102
{ACAD_REACTORS
330
19E
102
}
330
1B
100
AcDbEntity
67
0
8
layer 42
62
4
6
ByLayer
370
13
48
1.0
60
0
100
AcDbPolyline
90
4
70
1
38
0.0
39
0.0
10
78.5658630009862
20
-166.5
40
0.0
41
0.0
42
0.0542125595502828
10
79.0904419541548
20
-168.323948722565
40
0.0
41
0.0
42
0.0310550679208537
10
83.5
20
-167.603369859646
40
0.0
41
0.0
42
0.0
10
83.5
20
-166.5
40
0.0
41
0.0
42
0.0
210
0.0
220
0.0
230
1.0
0
LWPOLYLINE
5
197
102
{ACAD_REACTORS
330
19E
102
}
330
1B
100
AcDbEntity
67
0
8
layer 42
62
4
6
ByLayer
370
13
48
1.0
60
0
100
AcDbPolyline
90
4
70
1
38
0.0
39
0.0
10
70.0
20
-164.0
40
0.0
41
0.0
42
0.0
10
70.0
20
-166.0
40
0.0
41
0.0
42
0.0
10
69.0
20
-166.0
40
0.0
41
0.0
42
0.0
10
69.0
20
-164.0
40
0.0
41
0.0
42
0.0
210
0.0
220
0.0
230
1.0
0
LWPOLYLINE
5
198
102
{ACAD_REACTORS
330
19E
102
}
330
1B
100
AcDbEntity
67
0
8
layer 42
62
4
6
ByLayer
370
13
48
1.0
60
0
100
AcDbPolyline
90
8
70
1
38
0.0
39
0.0
10
70.0
20
-161.919154373412
40
0.0
41
0.0
42
0.0
10
70.0
20
-163.5
40
0.0
41
0.0
42
0.0
10
68.5
20
-163.5
40
0.0
41
0.0
42
0.0
10
68.5
20
-166.5
40
0.0
41
0.0
42
0.0
10
70.0
20
-166.5
40
0.0
41
0.0
42
0.0
10
70.0
20
-168.080845626588
40
0.0
41
0.0
42
-0.01767876064241
10
67.5
20
-167.603369859646
40
0.0
41
0.0
42
0.0
10
67.5
20
-162.396630140354
40
0.0
41
0.0
42
-0.0176787606424096
210
0.0
220
0.0
230
1.0
0
LWPOLYLINE
5
199
102
{ACAD_REACTORS
330
19E
102
}
330
1B
100
AcDbEntity
67
0
8
layer 42
62
4
6
ByLayer
370
13
48
1.0
60
0
100
AcDbPolyline
90
4
70
1
38
0.0
39
0.0
10
78.7760720131883
20
-161.143881503048
40
0.0
41
0.0
42
-0.0194430776252073
10
79.101132217923
20
-160.5
40
0.0
41
0.0
42
0.0
10
70.5
20
-160.5
40
0.0
41
0.0
42
0.0
10
70.5
20
-161.340630536471
40
0.0
41
0.0
42
-0.0568795495199702
210
0.0
220
0.0
230
1.0
0
LWPOLYLINE
5
19A
102
{ACAD_REACTORS
330
19E
102
}
330
1B
100
AcDbEntity
67
0
8
layer 42
62
4
6
ByLayer
370
13
48
1.0
60
0
100
AcDbPolyline
90
4
70
1
38
0.0
39
0.0
10
77.9907985522804
20
-164.0
40
0.0
41
0.0
42
0.0540496304497107
10
77.9907985522804
20
-166.0
40
0.0
41
0.0
42
0.0
10
70.5
20
-166.0
40
0.0
41
0.0
42
0.0
10
70.5
20
-164.0
40
0.0
41
0.0
42
0.0
210
0.0
220
0.0
230
1.0
0
LWPOLYLINE
5
19B
102
{ACAD_REACTORS
330
19E
102
}
330
1B
100
AcDbEntity
67
0
8
layer 42
62
4
6
ByLayer
370
13
48
1.0
60
0
100
AcDbPolyline
90
4
70
1
38
0.0
39
0.0
10
78.7760720131883
20
-168.856118496952
40
0.0
41
0.0
42
0.0194430776252073
10
79.101132217923
20
-169.5
40
0.0
41
0.0
42
0.0
10
70.5
20
-169.5
40
0.0
41
0.0
42
0.0
10
70.5
20
-168.659369463529
40
0.0
41
0.0
42
0.0568795495199703
210
0.0
220
0.0
230
1.0
0
LWPOLYLINE
5
19C
102
{ACAD_REACTORS
330
19E
102
}
330
1B
100
AcDbEntity
67
0
8
layer 42
62
4
6
ByLayer
370
13
48
1.0
60
0
100
AcDbPolyline
90
4
70
1
38
0.0
39
0.0
10
78.5712908796836
20
-161.62781372936
40
0.0
41
0.0
42
0.0524478999108337
10
78.0588092786762
20
-163.5
40
0.0
41
0.0
42
0.0
10
70.5
20
-163.5
40
0.0
41
0.0
42
0.0
10
70.5
20
-161.845455051241
40
0.0
41
0.0
42
-0.0562430227747562
210
0.0
220
0.0
230
1.0
0
LWPOLYLINE
5
19D
102
{ACAD_REACTORS
330
19E
102
}
330
1B
100
AcDbEntity
67
0
8
layer 42
62
4
6
ByLayer
370
13
48
1.0
60
0
100
AcDbPolyline
90
4
70
1
38
0.0
39
0.0
10
78.0588092786762
20
-166.5
40
0.0
41
0.0
42
0.0524478999108339
10
78.5712908796836
20
-168.37218627064
40
0.0
41
0.0
42
-0.0562430227747559
10
70.5
20
-168.154544948759
40
0.0
41
0.0
42
0.0
10
70.5
20
-166.5
40
0.0
41
0.0
42
0.0
210
0.0
220
0.0
230
1.0
0
LWPOLYLINE
5
1A0
330
1B
100
AcDbEntity
67
0
8
layer 43
62
3
6
ByLayer
370
-1
48
1.0
60
0
100
AcDbPolyline
90
4
70
1
38
0.0
39
0.0
10
10.0
20
-190.0
40
0.0
41
0.0
42
0.0
10
20.0
20
-190.0
40
0.0
41
0.0
42
0.0
10
20.0
20
-180.0
40
0.0
41
0.0
42
0.0
10
10.0
20
-180.0
40
0.0
41
0.0
42
0.0
210
0.0
220
0.0
230
1.0
0
LWPOLYLINE
5
1A2
330
1B
100
AcDbEntity
67
0
8
layer 43
62
3
6
ByLayer
370
-1
48
1.0
60
0
100
AcDbPolyline
90
4
70
1
38
0.0
39
0.0
10
14.0
20
-186.0
40
0.0
41
0.0
42
0.0
10
19.5
20
-186.0
40
0.0
41
0.0
42
0.0
10
19.5
20
-180.5
40
0.0
41
0.0
42
0.0
10
14.0
20
-180.5
40
0.0
41
0.0
42
0.0
210
0.0
220
0.0
230
1.0
0
LWPOLYLINE
5
1A3
330
1B
100
AcDbEntity
67
0
8
layer 43
62
2
6
ByLayer
370
-1
48
1.0
60
0
100
AcDbPolyline
90
4
70
1
38
0.0
39
0.0
10
10.0
20
-190.0
40
0.0
41
0.0
42
0.0
10
20.0
20
-190.0
40
0.0
41
0.0
42
0.0
10
20.0
20
-180.0
40
0.0
41
0.0
42
0.0
10
10.0
20
-180.0
40
0.0
41
0.0
42
0.0
210
0.0
220
0.0
230
1.0
0
LWPOLYLINE
5
1A4
330
1B
100
AcDbEntity
67
0
8
layer 43
62
2
6
ByLayer
370
-1
48
1.0
60
0
100
AcDbPolyline
90
4
70
1
38
0.0
39
0.0
10
10.5
20
-189.5
40
0.0
41
0.0
42
0.0
10
16.0
20
-189.5
40
0.0
41
0.0
42
0.0
10
16.0
20
-184.0
40
0.0
41
0.0
42
0.0
10
10.5
20
-184.0
40
0.0
41
0.0
42
0.0
210
0.0
220
0.0
230
1.0
0
HATCH
5
1A7
330
1B
100
AcDbEntity
67
0
8
layer 43
62
4
6
ByLayer
370
0
48
1.0
60
0
100
AcDbHatch
10
0.0
20
0.0
30
0.0
210
0.0
220
0.0
230
1.0
2
LINE
70
0
71
1
91
2
92
7
72
1
73
1
93
4
10
10.0
20
-190.0
42
0.0
10
20.0
20
-190.0
42
0.0
10
20.0
20
-180.0
42
0.0
10
10.0
20
-180.0
42
0.0
97
1
330
1A5
92
7
72
1
73
1
93
4
10
16.0
20
-186.0
42
0.0
10
16.0
20
-184.0
42
0.0
10
14.0
20
-184.0
42
0.0
10
14.0
20
-186.0
42
0.0
97
1
330
1A6
75
0
76
0
52
45.0
41
0.5
77
0
78
0
47
0.0
98
1
10
0.0
20
0.0
1001
ACAD
1010
0.0
1020
0.0
1030
0.0
0
LWPOLYLINE
5
1A5
102
{ACAD_REACTORS
330
1A7
102
}
330
1B
100
AcDbEntity
67
0
8
layer 43
62
4
6
ByLayer
370
13
48
1.0
60
0
100
AcDbPolyline
90
4
70
1
38
0.0
39
0.0
10
10.0
20
-190.0
40
0.0
41
0.0
42
0.0
10
20.0
20
-190.0
40
0.0
41
0.0
42
0.0
10
20.0
20
-180.0
40
0.0
41
0.0
42
0.0
10
10.0
20
-180.0
40
0.0
41
0.0
42
0.0
210
0.0
220
0.0
230
1.0
0
LWPOLYLINE
5
1A6
102
{ACAD_REACTORS
330
1A7
102
}
330
1B
100
AcDbEntity
67
0
8
layer 43
62
4
6
ByLayer
370
13
48
1.0
60
0
100
AcDbPolyline
90
4
70
1
38
0.0
39
0.0
10
16.0
20
-186.0
40
0.0
41
0.0
42
0.0
10
16.0
20
-184.0
40
0.0
41
0.0
42
0.0
10
14.0
20
-184.0
40
0.0
41
0.0
42
0.0
10
14.0
20
-186.0
40
0.0
41
0.0
42
0.0
210
0.0
220
0.0
230
1.0
0
LWPOLYLINE
5
1A9
330
1B
100
AcDbEntity
67
0
8
layer 44
62
3
6
ByLayer
370
-1
48
1.0
60
0
100
AcDbPolyline
90
4
70
1
38
0.0
39
0.0
10
40.0
20
-190.0
40
0.0
41
0.0
42
0.0
10
50.0
20
-190.0
40
0.0
41
0.0
42
0.0
10
50.0
20
-180.0
40
0.0
41
0.0
42
0.0
10
40.0
20
-180.0
40
0.0
41
0.0
42
0.0
210
0.0
220
0.0
230
1.0
0
LWPOLYLINE
5
1AB
330
1B
100
AcDbEntity
67
0
8
layer 44
62
3
6
ByLayer
370
-1
48
1.0
60
0
100
AcDbPolyline
90
4
70
1
38
0.0
39
0.0
10
44.0
20
-180.5
40
0.0
41
0.0
42
0.0
10
44.0
20
-187.0
40
0.0
41
0.0
42
0.0
10
49.5
20
-187.0
40
0.0
41
0.0
42
0.0
10
49.5
20
-180.5
40
0.0
41
0.0
42
0.0
210
0.0
220
0.0
230
1.0
0
LWPOLYLINE
5
1AC
330
1B
100
AcDbEntity
67
0
8
layer 44
62
2
6
ByLayer
370
-1
48
1.0
60
0
100
AcDbPolyline
90
4
70
1
38
0.0
39
0.0
10
40.0
20
-190.0
40
0.0
41
0.0
42
0.0
10
50.0
20
-190.0
40
0.0
41
0.0
42
0.0
10
50.0
20
-180.0
40
0.0
41
0.0
42
0.0
10
40.0
20
-180.0
40
0.0
41
0.0
42
0.0
210
0.0
220
0.0
230
1.0
0
LWPOLYLINE
5
1AD
330
1B
100
AcDbEntity
67
0
8
layer 44
62
2
6
ByLayer
370
-1
48
1.0
60
0
100
AcDbPolyline
90
4
70
1
38
0.0
39
0.0
10
40.5
20
-184.0
40
0.0
41
0.0
42
0.0
10
46.0
20
-184.0
40
0.0
41
0.0
42
0.0
10
46.0
20
-180.5
40
0.0
41
0.0
42
0.0
10
40.5
20
-180.5
40
0.0
41
0.0
42
0.0
210
0.0
220
0.0
230
1.0
0
LWPOLYLINE
5
1AE
330
1B
100
AcDbEntity
67
0
8
layer 44
62
2
6
ByLayer
370
-1
48
1.0
60
0
100
AcDbPolyline
90
6
70
1
38
0.0
39
0.0
10
40.5
20
-186.0
40
0.0
41
0.0
42
0.0
10
40.5
20
-189.5
40
0.0
41
0.0
42
0.0
10
46.0
20
-189.5
40
0.0
41
0.0
42
0.0
10
46.0
20
-187.0
40
0.0
41
0.0
42
0.0
10
44.0
20
-187.0
40
0.0
41
0.0
42
0.0
10
44.0
20
-186.0
40
0.0
41
0.0
42
0.0
210
0.0
220
0.0
230
1.0
0
HATCH
5
1B1
330
1B
100
AcDbEntity
67
0
8
layer 44
62
4
6
ByLayer
370
0
48
1.0
60
0
100
AcDbHatch
10
0.0
20
0.0
30
0.0
210
0.0
220
0.0
230
1.0
2
LINE
70
0
71
1
91
2
92
7
72
1
73
1
93
4
10
40.0
20
-190.0
42
0.0
10
50.0
20
-190.0
42
0.0
10
50.0
20
-180.0
42
0.0
10
40.0
20
-180.0
42
0.0
97
1
330
1AF
92
7
72
1
73
1
93
4
10
44.0
20
-184.0
42
0.0
10
46.0
20
-184.0
42
0.0
10
46.0
20
-180.5
42
0.0
10
44.0
20
-180.5
42
0.0
97
1
330
1B0
75
0
76
0
52
45.0
41
0.5
77
0
78
0
47
0.0
98
1
10
0.0
20
0.0
1001
ACAD
1010
0.0
1020
0.0
1030
0.0
0
LWPOLYLINE
5
1AF
102
{ACAD_REACTORS
330
1B1
102
}
330
1B
100
AcDbEntity
67
0
8
layer 44
62
4
6
ByLayer
370
13
48
1.0
60
0
100
AcDbPolyline
90
4
70
1
38
0.0
39
0.0
10
40.0
20
-190.0
40
0.0
41
0.0
42
0.0
10
50.0
20
-190.0
40
0.0
41
0.0
42
0.0
10
50.0
20
-180.0
40
0.0
41
0.0
42
0.0
10
40.0
20
-180.0
40
0.0
41
0.0
42
0.0
210
0.0
220
0.0
230
1.0
0
LWPOLYLINE
5
1B0
102
{ACAD_REACTORS
330
1B1
102
}
330
1B
100
AcDbEntity
67
0
8
layer 44
62
4
6
ByLayer
370
13
48
1.0
60
0
100
AcDbPolyline
90
4
70
1
38
0.0
39
0.0
10
44.0
20
-184.0
40
0.0
41
0.0
42
0.0
10
46.0
20
-184.0
40
0.0
41
0.0
42
0.0
10
46.0
20
-180.5
40
0.0
41
0.0
42
0.0
10
44.0
20
-180.5
40
0.0
41
0.0
42
0.0
210
0.0
220
0.0
230
1.0
0
LWPOLYLINE
5
1B3
330
1B
100
AcDbEntity
67
0
8
layer 45
62
3
6
ByLayer
370
-1
48
1.0
60
0
100
AcDbPolyline
90
4
70
1
38
0.0
39
0.0
10
70.0
20
-190.0
40
0.0
41
0.0
42
0.0
10
80.0
20
-190.0
40
0.0
41
0.0
42
0.0
10
80.0
20
-180.0
40
0.0
41
0.0
42
0.0
10
70.0
20
-180.0
40
0.0
41
0.0
42
0.0
210
0.0
220
0.0
230
1.0
0
LWPOLYLINE
5
1B5
330
1B
100
AcDbEntity
67
0
8
layer 45
62
3
6
ByLayer
370
-1
48
1.0
60
0
100
AcDbPolyline
90
4
70
1
38
0.0
39
0.0
10
74.0
20
-186.0
40
0.0
41
0.0
42
0.0
10
79.5
20
-186.0
40
0.0
41
0.0
42
0.0
10
79.5
20
-180.5
40
0.0
41
0.0
42
0.0
10
74.0
20
-180.5
40
0.0
41
0.0
42
0.0
210
0.0
220
0.0
230
1.0
0
LWPOLYLINE
5
1B6
330
1B
100
AcDbEntity
67
0
8
layer 45
62
3
6
ByLayer
370
-1
48
1.0
60
0
100
AcDbPolyline
90
4
70
1
38
0.0
39
0.0
10
76.625
20
-189.0
40
0.0
41
0.0
42
0.0
10
79.375
20
-189.0
40
0.0
41
0.0
42
0.0
10
79.375
20
-187.0
40
0.0
41
0.0
42
0.0
10
76.625
20
-187.0
40
0.0
41
0.0
42
0.0
210
0.0
220
0.0
230
1.0
0
LWPOLYLINE
5
1B7
330
1B
100
AcDbEntity
67
0
8
layer 45
62
2
6
ByLayer
370
-1
48
1.0
60
0
100
AcDbPolyline
90
4
70
1
38
0.0
39
0.0
10
70.0
20
-190.0
40
0.0
41
0.0
42
0.0
10
80.0
20
-190.0
40
0.0
41
0.0
42
0.0
10
80.0
20
-180.0
40
0.0
41
0.0
42
0.0
10
70.0
20
-180.0
40
0.0
41
0.0
42
0.0
210
0.0
220
0.0
230
1.0
0
LWPOLYLINE
5
1B8
330
1B
100
AcDbEntity
67
0
8
layer 45
62
2
6
ByLayer
370
-1
48
1.0
60
0
100
AcDbPolyline
90
4
70
1
38
0.0
39
0.0
10
70.5
20
-189.5
40
0.0
41
0.0
42
0.0
10
76.0
20
-189.5
40
0.0
41
0.0
42
0.0
10
76.0
20
-186.0
40
0.0
41
0.0
42
0.0
10
70.5
20
-186.0
40
0.0
41
0.0
42
0.0
210
0.0
220
0.0
230
1.0
0
LWPOLYLINE
5
1B9
330
1B
100
AcDbEntity
67
0
8
layer 45
62
2
6
ByLayer
370
-1
48
1.0
60
0
100
AcDbPolyline
90
4
70
1
38
0.0
39
0.0
10
70.5
20
-184.0
40
0.0
41
0.0
42
0.0
10
76.0
20
-184.0
40
0.0
41
0.0
42
0.0
10
76.0
20
-180.5
40
0.0
41
0.0
42
0.0
10
70.5
20
-180.5
40
0.0
41
0.0
42
0.0
210
0.0
220
0.0
230
1.0
0
HATCH
5
1BC
330
1B
100
AcDbEntity
67
0
8
layer 45
62
4
6
ByLayer
370
0
48
1.0
60
0
100
AcDbHatch
10
0.0
20
0.0
30
0.0
210
0.0
220
0.0
230
1.0
2
LINE
70
0
71
1
91
2
92
7
72
1
73
1
93
4
10
70.0
20
-190.0
42
0.0
10
80.0
20
-190.0
42
0.0
10
80.0
20
-180.0
42
0.0
10
70.0
20
-180.0
42
0.0
97
1
330
1BA
92
7
72
1
73
1
93
4
10
74.0
20
-184.0
42
0.0
10
76.0
20
-184.0
42
0.0
10
76.0
20
-180.5
42
0.0
10
74.0
20
-180.5
42
0.0
97
1
330
1BB
75
0
76
0
52
45.0
41
0.5
77
0
78
0
47
0.0
98
1
10
0.0
20
0.0
1001
ACAD
1010
0.0
1020
0.0
1030
0.0
0
LWPOLYLINE
5
1BA
102
{ACAD_REACTORS
330
1BC
102
}
330
1B
100
AcDbEntity
67
0
8
layer 45
62
4
6
ByLayer
370
13
48
1.0
60
0
100
AcDbPolyline
90
4
70
1
38
0.0
39
0.0
10
70.0
20
-190.0
40
0.0
41
0.0
42
0.0
10
80.0
20
-190.0
40
0.0
41
0.0
42
0.0
10
80.0
20
-180.0
40
0.0
41
0.0
42
0.0
10
70.0
20
-180.0
40
0.0
41
0.0
42
0.0
210
0.0
220
0.0
230
1.0
0
LWPOLYLINE
5
1BB
102
{ACAD_REACTORS
330
1BC
102
}
330
1B
100
AcDbEntity
67
0
8
layer 45
62
4
6
ByLayer
370
13
48
1.0
60
0
100
AcDbPolyline
90
4
70
1
38
0.0
39
0.0
10
74.0
20
-184.0
40
0.0
41
0.0
42
0.0
10
76.0
20
-184.0
40
0.0
41
0.0
42
0.0
10
76.0
20
-180.5
40
0.0
41
0.0
42
0.0
10
74.0
20
-180.5
40
0.0
41
0.0
42
0.0
210
0.0
220
0.0
230
1.0
0
VIEWPORT
5
2C
330
28
100
AcDbEntity
67
1
8
0
62
256
6
ByLayer
370
-1
48
1.0
60
0
100
AcDbViewport
10
0.0
20
0.0
30
0.0
40
297.0
41
210.0
68
1
69
1
12
50.0
22
100.0
13
0.0
23
0.0
14
10.0
24
10.0
15
10.0
25
10.0
16
0.0
26
0.0
36
1.0
17
0.0
27
0.0
37
0.0
42
50.0
43
0.0
44
0.0
45
250.0
50
0.0
51
0.0
72
1000
90
819232
110
0.0
120
0.0
130
0.0
111
1.0
121
0.0
131
0.0
112
0.0
122
1.0
132
0.0
0
ENDSEC
0
SECTION
2
OBJECTS
0
DICTIONARY
5
1BD
330
0
100
AcDbDictionary
280
0
281
1
3
ACAD_GROUP
350
11
3
ACAD_LAYOUT
350
2B
3
ACAD_MLINESTYLE
350
A
3
ACAD_IMAGE_DICT
350
D
3
ACAD_IMAGE_VARS
350
20
0
DICTIONARY
5
11
330
1BD
100
AcDbDictionary
280
0
281
1
0
DICTIONARY
5
2B
330
1BD
100
AcDbDictionary
280
0
281
1
3
Model
350
1F
3
Layout1
350
2D
0
DICTIONARY
5
A
330
1BD
100
AcDbDictionary
280
0
281
1
3
Standard
350
1A
0
DICTIONARY
5
D
330
1BD
100
AcDbDictionary
280
0
281
1
0
LAYOUT
5
1F
330
2B
100
AcDbPlotSettings
1

2
none_device
4
ISO_A4_(210.00_x_297.00_MM)
6

40
7.5
41
20.0
42
7.5
43
20.0
44
210.0
45
297.0
46
0.0
47
0.0
48
0.0
49
0.0
140
0.0
141
0.0
142
1.0
143
1.0
70
11952
72
1
73
1
74
1
7

75
0
76
0
77
2
78
300
147
1.0
148
0.0
149
0.0
100
AcDbLayout
1
Model
71
0
10
-20.0
20
-7.5
11
277.0
21
202.5
12
0.0
22
0.0
32
0.0
14
25.7
24
19.5
34
0.0
15
231.3
25
175.5
35
0.0
146
0.0
13
0.0
23
0.0
33
0.0
16
1.0
26
0.0
36
0.0
17
0.0
27
1.0
37
0.0
76
0
330
1B
0
LAYOUT
5
2D
330
2B
100
AcDbPlotSettings
1

2
none_device
4
ISO_A4_(210.00_x_297.00_MM)
6

40
7.5
41
20.0
42
7.5
43
20.0
44
210.0
45
297.0
46
0.0
47
0.0
48
0.0
49
0.0
140
0.0
141
0.0
142
1.0
143
1.0
70
688
72
1
73
1
74
1
7

75
0
76
0
77
2
78
300
147
1.0
148
0.0
149
0.0
100
AcDbLayout
1
Layout1
71
1
10
-20.0
20
-7.5
11
277.0
21
202.5
12
0.0
22
0.0
32
0.0
14
25.7
24
19.5
34
0.0
15
231.3
25
175.5
35
0.0
146
0.0
13
0.0
23
0.0
33
0.0
16
1.0
26
0.0
36
0.0
17
0.0
27
1.0
37
0.0
76
0
330
28
0
MLINESTYLE
5
1A
330
A
100
AcDbMlineStyle
2
Standard
70
0
3

62
256
51
90.0
52
90.0
71
2
49
0.5
62
256
6
ByLayer
49
-0.5
62
256
6
ByLayer
0
RASTERVARIABLES
5
20
330
D
100
AcDbRasterVariables
90
0
70
1
71
1
72
0
0
ENDSEC
0
EOF
