999
DXF file generated by netDxf https://github.com/haplokuon/netDxf, Copyright(C) 2009-2020 Daniel Carvajal, Licensed under LGPL
0
SECTION
2
HEADER
9
$ACADVER
1
AC1015
9
$DWGCODEPAGE
3
ANSI_1252
9
$HANDSEED
5
3E
9
$ANGBASE
50
0.0
9
$ANGDIR
70
0
9
$ATTMODE
70
1
9
$AUNITS
70
0
9
$AUPREC
70
0
9
$CECOLOR
62
256
9
$CELTSCALE
40
1.0
9
$CELTYPE
6
ByLayer
9
$CELWEIGHT
370
-1
9
$CLAYER
8
0
9
$CMLJUST
70
0
9
$CMLSCALE
40
20.0
9
$CMLSTYLE
2
Standard
9
$DIMSTYLE
2
Standard
9
$TEXTSIZE
40
2.5
9
$TEXTSTYLE
7
Standard
9
$LUNITS
70
2
9
$LUPREC
70
4
9
$MIRRTEXT
70
0
9
$EXTNAMES
290
1
9
$INSBASE
10
0.0
20
0.0
30
0.0
9
$INSUNITS
70
0
9
$LTSCALE
40
1.0
9
$LWDISPLAY
290
0
9
$PDMODE
70
0
9
$PDSIZE
40
0.0
9
$PLINEGEN
70
0
9
$PSLTSCALE
70
1
9
$TDCREATE
40
2459755.79841683
9
$TDUCREATE
40
2459755.7150835
9
$TDUPDATE
40
2459755.79841683
9
$TDUUPDATE
40
2459755.7150835
9
$TDINDWG
40
0.0
9
$UCSORG
10
0.0
20
0.0
30
0.0
9
$UCSXDIR
10
1.0
20
0.0
30
0.0
9
$UCSYDIR
10
0.0
20
1.0
30
0.0
9
$DIMADEC
70
0
9
$DIMALT
70
0
9
$DIMALTD
70
2
9
$DIMALTF
40
25.4
9
$DIMALTRND
40
0.0
9
$DIMALTTD
70
2
9
$DIMALTTZ
70
0
9
$DIMALTU
70
2
9
$DIMALTZ
70
0
9
$DIMAPOST
1

9
$DIMATFIT
70
3
9
$DIMAUNIT
70
0
9
$DIMASZ
40
0.18
9
$DIMAZIN
70
0
9
$DIMSAH
70
0
9
$DIMBLK
1

9
$DIMLDRBLK
1

9
$DIMCEN
40
0.09
9
$DIMCLRD
70
0
9
$DIMCLRE
70
0
9
$DIMCLRT
70
0
9
$DIMDEC
70
4
9
$DIMDLE
40
0.0
9
$DIMDLI
40
0.38
9
$DIMDSEP
70
46
9
$DIMEXE
40
0.18
9
$DIMEXO
40
0.0625
9
$DIMFXLON
70
0
9
$DIMFXL
40
1.0
9
$DIMGAP
40
0.09
9
$DIMJUST
70
0
9
$DIMLFAC
40
1.0
9
$DIMLUNIT
70
2
9
$DIMLWD
70
-2
9
$DIMLWE
70
-2
9
$DIMPOST
1

9
$DIMRND
40
0.0
9
$DIMSCALE
40
1.0
9
$DIMSD1
70
0
9
$DIMSD2
70
0
9
$DIMSE1
70
0
9
$DIMSE2
70
0
9
$DIMSOXD
70
0
9
$DIMTAD
70
0
9
$DIMTDEC
70
4
9
$DIMTFAC
40
1.0
9
$DIMTIH
70
0
9
$DIMTIX
70
0
9
$DIMTM
40
0.0
9
$DIMTMOVE
70
0
9
$DIMTOFL
70
0
9
$DIMTOH
70
0
9
$DIMTOL
70
0
9
$DIMLIM
70
0
9
$DIMTOLJ
70
1
9
$DIMTP
40
0.0
9
$DIMTXT
40
0.18
9
$DIMTXTDIRECTION
70
0
9
$DIMTZIN
70
0
9
$DIMZIN
70
0
9
$DIMFRAC
70
0
9
$DIMLTYPE
6
ByBlock
9
$DIMLTEX1
6
ByBlock
9
$DIMLTEX2
6
ByBlock
0
ENDSEC
0
SECTION
2
CLASSES
0
CLASS
1
RASTERVARIABLES
2
AcDbRasterVariables
3
ISM
90
0
280
0
281
0
0
ENDSEC
0
SECTION
2
TABLES
0
TABLE
2
APPID
5
4
330
0
100
AcDbSymbolTable
0
APPID
5
18
330
4
100
AcDbSymbolTableRecord
100
AcDbRegAppTableRecord
2
ACAD
70
0
0
APPID
5
3A
330
4
100
AcDbSymbolTableRecord
100
AcDbRegAppTableRecord
2
AcCmTransparency
70
0
0
APPID
5
3B
330
4
100
AcDbSymbolTableRecord
100
AcDbRegAppTableRecord
2
GradientColor1ACI
70
0
0
APPID
5
3C
330
4
100
AcDbSymbolTableRecord
100
AcDbRegAppTableRecord
2
GradientColor2ACI
70
0
0
ENDTAB
0
TABLE
2
VPORT
5
1
330
0
100
AcDbSymbolTable
0
VPORT
5
2
330
1
100
AcDbSymbolTableRecord
100
AcDbViewportTableRecord
2
*Active
70
0
10
0.0
20
0.0
11
1.0
21
1.0
12
0.0
22
0.0
13
0.0
23
0.0
14
0.5
24
0.5
15
10.0
25
10.0
16
0.0
26
0.0
36
1.0
17
0.0
27
0.0
37
0.0
40
10.0
41
1.0
75
0
76
0
0
ENDTAB
0
TABLE
2
LTYPE
5
6
330
0
100
AcDbSymbolTable
0
LTYPE
5
14
330
6
100
AcDbSymbolTableRecord
100
AcDbLinetypeTableRecord
2
Continuous
70
0
3
Solid line
72
65
73
0
40
0.0
0
LTYPE
5
15
330
6
100
AcDbSymbolTableRecord
100
AcDbLinetypeTableRecord
2
ByLayer
70
0
3

72
65
73
0
40
0.0
0
LTYPE
5
16
330
6
100
AcDbSymbolTableRecord
100
AcDbLinetypeTableRecord
2
ByBlock
70
0
3

72
65
73
0
40
0.0
0
ENDTAB
0
TABLE
2
LAYER
5
5
330
0
100
AcDbSymbolTable
0
LAYER
5
13
330
5
100
AcDbSymbolTableRecord
100
AcDbLayerTableRecord
2
0
70
0
62
7
6
Continuous
290
1
370
-3
390
0
0
LAYER
5
31
330
5
100
AcDbSymbolTableRecord
100
AcDbLayerTableRecord
2
yellow
70
0
62
2
420
16776960
6
Continuous
290
1
370
25
390
0
0
LAYER
5
33
330
5
100
AcDbSymbolTableRecord
100
AcDbLayerTableRecord
2
green
70
0
62
3
420
65280
6
Continuous
290
1
370
25
390
0
0
ENDTAB
0
TABLE
2
STYLE
5
7
330
0
100
AcDbSymbolTable
0
STYLE
5
17
330
7
100
AcDbSymbolTableRecord
100
AcDbTextStyleTableRecord
2
Standard
3
simplex.shx
70
0
71
0
40
0.0
41
1.0
42
0.0
50
0.0
0
ENDTAB
0
TABLE
2
DIMSTYLE
5
9
330
0
100
AcDbSymbolTable
100
AcDbDimStyleTable
0
DIMSTYLE
105
19
330
9
100
AcDbSymbolTableRecord
100
AcDbDimStyleTableRecord
2
Standard
3

4

40
1.0
41
0.18
42
0.0625
43
0.38
44
0.18
45
0.0
46
0.0
47
0.0
48
0.0
49
1.0
70
0
71
0
72
0
73
0
74
0
75
0
76
0
77
0
78
0
79
0
140
0.18
141
0.09
143
25.4
144
1.0
146
1.0
147
0.09
148
0.0
170
0
171
2
172
0
174
0
175
0
176
0
177
0
178
0
179
0
271
4
272
4
273
2
274
2
275
0
276
0
277
2
278
46
279
0
280
0
281
0
282
0
283
1
284
0
285
0
286
0
289
3
290
0
294
0
340
17
173
0
345
16
346
16
347
16
371
-2
372
-2
0
ENDTAB
0
TABLE
2
VIEW
5
3
330
0
100
AcDbSymbolTable
0
ENDTAB
0
TABLE
2
UCS
5
B
330
0
100
AcDbSymbolTable
0
ENDTAB
0
TABLE
2
BLOCK_RECORD
5
C
330
0
100
AcDbSymbolTable
0
BLOCK_RECORD
5
1B
330
C
100
AcDbSymbolTableRecord
100
AcDbBlockTableRecord
2
*Model_Space
340
1F
0
BLOCK_RECORD
5
34
330
C
100
AcDbSymbolTableRecord
100
AcDbBlockTableRecord
2
*Paper_Space
340
39
0
ENDTAB
0
ENDSEC
0
SECTION
2
BLOCKS
0
BLOCK
5
1D
330
1B
100
AcDbEntity
67
0
8
0
100
AcDbBlockBegin
2
*Model_Space
70
0
10
0.0
20
0.0
30
0.0
3
*Model_Space
4

0
ENDBLK
5
1C
330
1B
100
AcDbEntity
8
0
100
AcDbBlockEnd
0
BLOCK
5
36
330
34
100
AcDbEntity
67
1
8
0
100
AcDbBlockBegin
2
*Paper_Space
70
0
10
0.0
20
0.0
30
0.0
3
*Paper_Space
4

0
ENDBLK
5
35
330
34
100
AcDbEntity
8
0
100
AcDbBlockEnd
0
ENDSEC
0
SECTION
2
ENTITIES
0
LWPOLYLINE
5
21
330
1B
100
AcDbEntity
67
0
8
0
62
1
6
ByLayer
370
-1
48
1.0
60
0
100
AcDbPolyline
90
13
70
1
38
0.0
39
0.0
10
20.0
20
34.0
40
0.0
41
0.0
42
0.0
10
20.0
20
10.0
40
0.0
41
0.0
42
0.0
10
43.0
20
10.0
40
0.0
41
0.0
42
0.0
10
43.0
20
22.0
40
0.0
41
0.0
42
-0.180809265285753
10
39.72
20
23.2261955535561
40
0.0
41
0.0
42
0.115114877479661
10
41.1853271464865
20
24.4935151793965
40
0.0
41
0.0
42
0.0
10
35.0587423249432
20
24.4935151793965
40
0.0
41
0.0
42
0.0
10
35.0587423249432
20
30.0
40
0.0
41
0.0
42
0.0
10
40.7657883305133
20
30.0
40
0.0
41
0.0
42
0.0767389894840659
10
39.72
20
30.7738044464439
40
0.0
41
0.0
42
-0.180809265285753
10
43.0
20
32.0
40
0.0
41
0.0
42
0.0
10
43.0
20
34.0
40
0.0
41
0.0
42
0.17716930768033
10
31.5
20
38.2069457433863
40
0.0
41
0.0
42
0.17716930768033
210
0.0
220
0.0
230
1.0
0
HATCH
5
2F
330
1B
100
AcDbEntity
67
0
8
0
62
4
6
ByLayer
370
-1
48
1.0
60
0
100
AcDbHatch
10
0.0
20
0.0
30
0.0
210
0.0
220
0.0
230
1.0
2
LINE
70
0
71
1
91
1
92
5
93
13
72
1
10
20.0
20
34.0
11
20.0
21
10.0
72
1
10
20.0
20
10.0
11
43.0
21
10.0
72
1
10
43.0
20
10.0
11
43.0
21
22.0
72
2
10
43.0
20
27.0
40
4.99999999999998
50
229.004481190048
51
270.0
73
1
72
2
10
37.7368421052632
20
27.0
40
4.26315789473683
50
297.722207573412
51
323.988977172932
73
1
72
1
10
41.1853271464865
20
24.4935151793965
11
35.0587423249432
21
24.4935151793965
72
1
10
35.0587423249432
20
24.4935151793965
11
35.0587423249432
21
30.0
72
1
10
35.0587423249432
20
30.0
11
40.7657883305133
21
30.0
72
2
10
37.7368421052632
20
27.0
40
4.26315789473683
50
44.7249131549338
51
62.2777924265878
73
1
72
2
10
43.0
20
27.0
40
4.99999999999999
50
89.9999999999999
51
130.995518809952
73
1
72
1
10
43.0
20
32.0
11
43.0
21
34.0
72
2
10
31.5
20
20.3854189595516
40
17.8215267838346
50
49.8128009681433
51
90.0
73
1
72
2
10
31.5
20
20.3854189595516
40
17.8215267838346
50
90.0
51
130.187199031857
73
1
97
13
330
22
330
23
330
24
330
25
330
26
330
27
330
28
330
29
330
2A
330
2B
330
2C
330
2D
330
2E
75
0
76
1
52
45.0
41
5.0
77
0
78
1
53
45.0
43
0.0
44
0.0
45
-0.441941738241592
46
0.441941738241592
79
0
47
0.0
98
1
10
0.0
20
0.0
1001
ACAD
1010
0.0
1020
0.0
1030
0.0
0
LINE
5
22
102
{ACAD_REACTORS
330
2F
102
}
330
1B
100
AcDbEntity
67
0
8
0
62
256
6
ByLayer
370
-1
48
1.0
60
0
100
AcDbLine
10
20.0
20
34.0
30
0.0
11
20.0
21
10.0
31
0.0
39
0.0
210
0.0
220
0.0
230
1.0
0
LINE
5
23
102
{ACAD_REACTORS
330
2F
102
}
330
1B
100
AcDbEntity
67
0
8
0
62
256
6
ByLayer
370
-1
48
1.0
60
0
100
AcDbLine
10
20.0
20
10.0
30
0.0
11
43.0
21
10.0
31
0.0
39
0.0
210
0.0
220
0.0
230
1.0
0
LINE
5
24
102
{ACAD_REACTORS
330
2F
102
}
330
1B
100
AcDbEntity
67
0
8
0
62
256
6
ByLayer
370
-1
48
1.0
60
0
100
AcDbLine
10
43.0
20
10.0
30
0.0
11
43.0
21
22.0
31
0.0
39
0.0
210
0.0
220
0.0
230
1.0
0
ARC
5
25
102
{ACAD_REACTORS
330
2F
102
}
330
1B
100
AcDbEntity
67
0
8
0
62
256
6
ByLayer
370
-1
48
1.0
60
0
100
AcDbCircle
39
0.0
10
43.0
20
27.0
30
0.0
40
4.99999999999998
210
0.0
220
0.0
230
1.0
100
AcDbArc
50
229.004481190048
51
270.0
0
ARC
5
26
102
{ACAD_REACTORS
330
2F
102
}
330
1B
100
AcDbEntity
67
0
8
0
62
256
6
ByLayer
370
-1
48
1.0
60
0
100
AcDbCircle
39
0.0
10
37.7368421052632
20
27.0
30
0.0
40
4.26315789473683
210
0.0
220
0.0
230
1.0
100
AcDbArc
50
297.722207573412
51
323.988977172932
0
LINE
5
27
102
{ACAD_REACTORS
330
2F
102
}
330
1B
100
AcDbEntity
67
0
8
0
62
256
6
ByLayer
370
-1
48
1.0
60
0
100
AcDbLine
10
41.1853271464865
20
24.4935151793965
30
0.0
11
35.0587423249432
21
24.4935151793965
31
0.0
39
0.0
210
0.0
220
0.0
230
1.0
0
LINE
5
28
102
{ACAD_REACTORS
330
2F
102
}
330
1B
100
AcDbEntity
67
0
8
0
62
256
6
ByLayer
370
-1
48
1.0
60
0
100
AcDbLine
10
35.0587423249432
20
24.4935151793965
30
0.0
11
35.0587423249432
21
30.0
31
0.0
39
0.0
210
0.0
220
0.0
230
1.0
0
LINE
5
29
102
{ACAD_REACTORS
330
2F
102
}
330
1B
100
AcDbEntity
67
0
8
0
62
256
6
ByLayer
370
-1
48
1.0
60
0
100
AcDbLine
10
35.0587423249432
20
30.0
30
0.0
11
40.7657883305133
21
30.0
31
0.0
39
0.0
210
0.0
220
0.0
230
1.0
0
ARC
5
2A
102
{ACAD_REACTORS
330
2F
102
}
330
1B
100
AcDbEntity
67
0
8
0
62
256
6
ByLayer
370
-1
48
1.0
60
0
100
AcDbCircle
39
0.0
10
37.7368421052632
20
27.0
30
0.0
40
4.26315789473683
210
0.0
220
0.0
230
1.0
100
AcDbArc
50
44.7249131549338
51
62.2777924265878
0
ARC
5
2B
102
{ACAD_REACTORS
330
2F
102
}
330
1B
100
AcDbEntity
67
0
8
0
62
256
6
ByLayer
370
-1
48
1.0
60
0
100
AcDbCircle
39
0.0
10
43.0
20
27.0
30
0.0
40
4.99999999999999
210
0.0
220
0.0
230
1.0
100
AcDbArc
50
89.9999999999999
51
130.995518809952
0
LINE
5
2C
102
{ACAD_REACTORS
330
2F
102
}
330
1B
100
AcDbEntity
67
0
8
0
62
256
6
ByLayer
370
-1
48
1.0
60
0
100
AcDbLine
10
43.0
20
32.0
30
0.0
11
43.0
21
34.0
31
0.0
39
0.0
210
0.0
220
0.0
230
1.0
0
ARC
5
2D
102
{ACAD_REACTORS
330
2F
102
}
330
1B
100
AcDbEntity
67
0
8
0
62
256
6
ByLayer
370
-1
48
1.0
60
0
100
AcDbCircle
39
0.0
10
31.5
20
20.3854189595516
30
0.0
40
17.8215267838346
210
0.0
220
0.0
230
1.0
100
AcDbArc
50
49.8128009681433
51
90.0
0
ARC
5
2E
102
{ACAD_REACTORS
330
2F
102
}
330
1B
100
AcDbEntity
67
0
8
0
62
256
6
ByLayer
370
-1
48
1.0
60
0
100
AcDbCircle
39
0.0
10
31.5
20
20.3854189595516
30
0.0
40
17.8215267838346
210
0.0
220
0.0
230
1.0
100
AcDbArc
50
90.0
51
130.187199031857
0
LWPOLYLINE
5
30
330
1B
100
AcDbEntity
67
0
8
yellow
62
256
6
ByLayer
370
-1
48
1.0
60
0
100
AcDbPolyline
90
9
70
128
38
0.0
39
0.0
10
20.0
20
38.2069457433863
40
0.0
41
0.0
42
0.0
10
20.0
20
10.0
40
0.0
41
0.0
42
0.0
10
43.0
20
10.0
40
0.0
41
0.0
42
0.0
10
43.0
20
24.4935151793965
40
0.0
41
0.0
42
0.0
10
35.0587423249432
20
24.4935151793965
40
0.0
41
0.0
42
0.0
10
35.0587423249432
20
30.0
40
0.0
41
0.0
42
0.0
10
43.0
20
30.0
40
0.0
41
0.0
42
0.0
10
43.0
20
38.2069457433863
40
0.0
41
0.0
42
0.0
10
20.0
20
38.2069457433863
40
0.0
41
0.0
42
0.0
210
0.0
220
0.0
230
1.0
0
LWPOLYLINE
5
32
330
1B
100
AcDbEntity
67
0
8
green
62
256
6
ByLayer
370
-1
48
1.0
60
0
100
AcDbPolyline
90
9
70
128
38
0.0
39
0.0
10
20.0
20
34.0
40
0.0
41
0.0
42
0.0
10
20.0
20
10.0
40
0.0
41
0.0
42
0.0
10
43.0
20
10.0
40
0.0
41
0.0
42
0.0
10
43.0
20
22.0
40
0.0
41
0.0
42
-0.180809265285753
10
39.72
20
23.2261955535561
40
0.0
41
0.0
42
0.60416485071145
10
39.72
20
30.7738044464439
40
0.0
41
0.0
42
-0.180809265285753
10
43.0
20
32.0
40
0.0
41
0.0
42
0.0
10
43.0
20
34.0
40
0.0
41
0.0
42
0.365821368990112
10
20.0
20
34.0
40
0.0
41
0.0
42
0.0
210
0.0
220
0.0
230
1.0
0
VIEWPORT
5
38
330
34
100
AcDbEntity
67
1
8
0
62
256
6
ByLayer
370
-1
48
1.0
60
0
100
AcDbViewport
10
0.0
20
0.0
30
0.0
40
297.0
41
210.0
68
1
69
1
12
50.0
22
100.0
13
0.0
23
0.0
14
10.0
24
10.0
15
10.0
25
10.0
16
0.0
26
0.0
36
1.0
17
0.0
27
0.0
37
0.0
42
50.0
43
0.0
44
0.0
45
250.0
50
0.0
51
0.0
72
1000
90
819232
110
0.0
120
0.0
130
0.0
111
1.0
121
0.0
131
0.0
112
0.0
122
1.0
132
0.0
0
ENDSEC
0
SECTION
2
OBJECTS
0
DICTIONARY
5
3D
330
0
100
AcDbDictionary
280
0
281
1
3
ACAD_GROUP
350
11
3
ACAD_LAYOUT
350
37
3
ACAD_MLINESTYLE
350
A
3
ACAD_IMAGE_DICT
350
D
3
ACAD_IMAGE_VARS
350
20
0
DICTIONARY
5
11
330
3D
100
AcDbDictionary
280
0
281
1
0
DICTIONARY
5
37
330
3D
100
AcDbDictionary
280
0
281
1
3
Model
350
1F
3
Layout1
350
39
0
DICTIONARY
5
A
330
3D
100
AcDbDictionary
280
0
281
1
3
Standard
350
1A
0
DICTIONARY
5
D
330
3D
100
AcDbDictionary
280
0
281
1
0
LAYOUT
5
1F
330
37
100
AcDbPlotSettings
1

2
none_device
4
ISO_A4_(210.00_x_297.00_MM)
6

40
7.5
41
20.0
42
7.5
43
20.0
44
210.0
45
297.0
46
0.0
47
0.0
48
0.0
49
0.0
140
0.0
141
0.0
142
1.0
143
1.0
70
11952
72
1
73
1
74
1
7

75
0
76
0
77
2
78
300
147
1.0
148
0.0
149
0.0
100
AcDbLayout
1
Model
71
0
10
-20.0
20
-7.5
11
277.0
21
202.5
12
0.0
22
0.0
32
0.0
14
25.7
24
19.5
34
0.0
15
231.3
25
175.5
35
0.0
146
0.0
13
0.0
23
0.0
33
0.0
16
1.0
26
0.0
36
0.0
17
0.0
27
1.0
37
0.0
76
0
330
1B
0
LAYOUT
5
39
330
37
100
AcDbPlotSettings
1

2
none_device
4
ISO_A4_(210.00_x_297.00_MM)
6

40
7.5
41
20.0
42
7.5
43
20.0
44
210.0
45
297.0
46
0.0
47
0.0
48
0.0
49
0.0
140
0.0
141
0.0
142
1.0
143
1.0
70
688
72
1
73
1
74
1
7

75
0
76
0
77
2
78
300
147
1.0
148
0.0
149
0.0
100
AcDbLayout
1
Layout1
71
1
10
-20.0
20
-7.5
11
277.0
21
202.5
12
0.0
22
0.0
32
0.0
14
25.7
24
19.5
34
0.0
15
231.3
25
175.5
35
0.0
146
0.0
13
0.0
23
0.0
33
0.0
16
1.0
26
0.0
36
0.0
17
0.0
27
1.0
37
0.0
76
0
330
34
0
MLINESTYLE
5
1A
330
A
100
AcDbMlineStyle
2
Standard
70
0
3

62
256
51
90.0
52
90.0
71
2
49
0.5
62
256
6
ByLayer
49
-0.5
62
256
6
ByLayer
0
RASTERVARIABLES
5
20
330
D
100
AcDbRasterVariables
90
0
70
1
71
1
72
0
0
ENDSEC
0
EOF
